Easy Guitar Tabs Popular Songs – Show Off your Guitar Skill

Easy Guitar Tabs

Have you ever thought how you can show off with your guitar playing skills even more in front of your family and friends? 

I am here to l you. I have selected some popular songs that are fun to play, will sound stunning, and will look masterly to people who know play guitar and even those people who are not familiar with guitar playing. Learn these 10 songs, and no one will ever tell you you’re not a good guitar player.

10. One by Metallica

One by Metallica

Most people have heard this song at least once in their lifetime. It’s a cool sounding song and is fairly easy to play. Plus, the song was Metallica’s first Billboard Top 40 debut, ranking #35 on the charts. The song was also Metallica’s first music video and parts of the 1971 movie Johnny Got His Gun appeared in the video. 

The solo has tapping in it, which amazes anyone who doesn’t know how to play guitar. People will definitely think you are a good guitarist if they hear you play this song at a party.

Tab:

e|---------------------------------------------------------------------------|
B|---------------------------------------------------------------------------|
G|------------------------------------------------------------------------0--|
D|----4-----0--(0)------4-----0--(0)-------4-----0--(0)------4-----0--(0)----|
A|-2-----2------------------------------2-----2------------------------------|
E|-------------------3-----3------------------------------3-----3------------|

e|--------------------------------------------------------------------|
B|--------------------------------------------------------------------|
G|--------------------------------------------------------------------|
D|----4------0--(0)------4-----0--(0)------4-----0--(0)---------------|
A|-2-----2------------0-----0--------------------------------2-----2--|
E|--------------------------------------3-----3-----------0-----2-----|

e|--------------------------------------------|
B|-----------------3p2-----3p2-----3-3p2------|
G|------2-4b6br4~-------4-------2---------4~--|
D|-2h4----------------------------------------|
A|--------------------------------------------|
E|--------------------------------------------|

e|--------------------------------------------------------------------|
B|----------------------------------------2h3-2~------2-3p2-----------|
G|-11p9\7--9p7\6--7p6\4--6p4\2--/4~~---/4----------/4-------2-/4~~----|
D|--------------------------------------------------------------------|
A|--------------------------------------------------------------------|
E|--------------------------------------------------------------------|

e|-----14-19--17p15----15------|
B|---15-------------19----15~--|
G|-16--------------------------|
D|-----------------------------|
A|-----------------------------|
E|-----------------------------|

e|-----------------------------------|
B|-----------------------------------|
G|-7p6-7--9p7-9--11p9-11--/12-12-11--|
D|-----------------------------------|
A|-----------------------------------|
E|-----------------------------------|
                                                                  end solo
e|-----------------------------------------------------------------------|
B|------------------------12--------12-14-15-/17-15-14-12-14-14--15-12~--|
G|-----11-12-14------11-12--------11-------------------------------------|
D|---12------------12-----------12---------------------------------------|
A|-14------------14-----------14-----------------------------------------|
E|-----------------------------------------------------------------------|


e|-------------------------|
B|-------------------------|
G|-------------------------|
D|-------------------------|
A|----2-----2-----2-2h4-2--|
E|-0-----2-----0-----------|

e|----------------------------------------|
B|----------------------------------------|
G|----------------------------------------|
D|----4-----0-0-4--0------4-----0--4-4-0--| x2
A|-2-----2--------------------------------|
E|---------------------3-----3------------|

e|-----------------------------------------------------------|
B|-----------------------------------------------------------|
G|------------------------------------0----------------------|
D|----4-----0-0-4--0-----4-----0--4-4--------4-----0-0-4--0--|
A|-2-----2------------0-----0--------------------------------|
E|----------------------------------------3-----3------------|

e|-----------------------------------|
B|-----------------------------------|
G|-----------------------------------|
D|----2h4~-2---------------0---------|
A|---------------4------5---------7--|
E|-0----------2------3--------3-5----|

e|------------------------------------------|
B|-------------------------0h3p0---0h3p0----|
G|-------0-7-----0------4--------4-------0--|
D|----7-------7------5----------------------|
A|-5----------------------------------------|
E|------------------------------------------|

e|-------------------------0----|
B|-----------------------0---0--|
G|------0-10----0------0--------|
D|---10------10------9----------|
A|-8---------------7------------|
E|------------------------------|

e|------------------------------------------|
B|-------------------------0h3p0---0h3p0----|
G|-------0-7-----0------4--------4-------0--|
D|----7-------7------5----------------------|
A|-5----------------------------------------|
E|------------------------------------------|

e|------------------------------|
B|-----------------------0------|
G|------0-10----0------0--------|
D|---10------10------9----------|
A|-8---------------7--------/3--|
E|------------------------------|


[Verse]

e|---------------------------------------------------------------------------|
B|---------------------------------------------------------------------------|
G|---------------------------------------------------------------------------|
D|----4-----0-0-4--0-----4-----0--4-4-0-----4-----0-0-4--0-----4-----0-------|
A|-2-----2-------------------------------2-----2-------------------------/5--|
E|--------------------3-----3-------------------------------3-----3------/5--|

e|------------------------------------------------------------------------|
B|------------------------------------------------------------------------|
G|------------------------------------0-----------------------------------|
D|----4-----0-0-4--0-----4-----0--4-4--------4-----0-0-4--0---------------| x2
A|-2-----2------------0-----0------------------------------------2-----2--|
E|----------------------------------------3-----3-------------0-----2-----|


[Chorus]

e|--------------------------------------|
B|--------------------------------------|
G|--------------------------------------|
D|-----2-4-2-------4-2--4-6-4-2---------|
A|-5---0-2-0-5--4--2-0--2-4-2-0--3~-4~--|
E|-3---------3--2-----------------------|

e|------------------------------------------|
B|-------------------------0h3p0---0h3p0----|
G|-------0-7-----0------4--------4-------0--|
D|----7-------7------5----------------------|
A|-5----------------------------------------|
E|------------------------------------------|

e|-------------------------0----|
B|-----------------------0---0--|
G|------0-10----0------0--------|
D|---10------10------9----------|
A|-8---------------7------------|
E|------------------------------|

e|------------------------------------------|
B|-------------------------0h3p0---0h3p0----|
G|-------0-7-----0------4--------4-------0--|
D|----7-------7------5----------------------|
A|-5----------------------------------------|
E|------------------------------------------|

e|------------------------------|
B|-----------------------0------|
G|------0-10----0------0--------|
D|---10------10------9----------|
A|-8---------------7--------/3--|
E|------------------------------|


[Verse]

e|---------------------------------------------------------------------------|
B|---------------------------------------------------------------------------|
G|---------------------------------------------------------------------------|
D|----4-----0-0-4--0-----4-----0--4-4-0-----4-----0-0-4--0-----4-----0-------|
A|-2-----2-------------------------------2-----2-------------------------/5--|
E|--------------------3-----3-------------------------------3-----3------/5--|

e|------------------------------------------------------------------------|
B|------------------------------------------------------------------------|
G|------------------------------------0-----------------------------------|
D|----4-----0-0-4--0-----4-----0--4-4--------4-----0-0-4--0---------------| x2
A|-2-----2------------0-----0------------------------------------2-----2--|
E|----------------------------------------3-----3-------------0-----2-----|


[Chorus]

e|--------------------------------------|
B|--------------------------------------|
G|--------------------------------------|
D|-----2-4-2-------4-2--4-6-4-2---------|
A|-5---0-2-0-5--4--2-0--2-4-2-0--3~-4~--|
E|-3---------3--2-----------------------|

e|------------------------------------------|
B|-------------------------0h3p0---0h3p0----|
G|-------0-7-----0------4--------4-------0--|
D|----7-------7------5----------------------|
A|-5----------------------------------------|
E|------------------------------------------|

e|-----------------------------------|
B|-----------------------0-10p7---7--|
G|------0-10----0------0--------7----|
D|---10------10------9---------------|
A|-8---------------7-----------------|
E|-----------------------------------|


[Solo]

e|---------------------------------------------------|
B|-10~--10-8-7---7--h8p7-----/15-13-12----12-13------|
G|-------------9---------7~~-----------14-------12~--|
D|---------------------------------------------------|
A|---------------------------------------------------|
E|---------------------------------------------------|

e|-17p14----14-17--17-15-14-15p14--------14-15-17-19p17p15-19p17p15-19p17p15--|
B|-------15-----------------------15--15--------------------------------------|
G|----------------------------------------------------------------------------|
D|----------------------------------------------------------------------------|
A|----------------------------------------------------------------------------|
E|----------------------------------------------------------------------------|

e|----15-------------|
B|-19----17-19-15~~--|
G|-------------------|
D|-------------------|
A|-------------------|
E|-------------------|

e|-----------------------------|
B|-/8--8-8-7--/13-13-13-13-12--|
G|-/7--7-7-7--/12-12-12-12-12--|
D|-----------------------------|
A|-----------------------------|
E|-----------------------------|

e|-t20p17p13-t20p17p13-t20p17p13-t20p17p13-t20p17p13-t20p17p13--|
B|--------------------------------------------------------------|
G|--------------------------------------------------------------|
D|--------------------------------------------------------------|
A|--------------------------------------------------------------|
E|--------------------------------------------------------------|

                               end solo
e|-(t20)p12h13p12~--(t20)p12h13p12~~--|
B|------------------------------------|
G|------------------------------------|
D|------------------------------------|
A|------------------------------------|
E|------------------------------------|


[Chorus]

e|-------------------------------------|
B|-------------------------------------|
G|-------------------------------------|
D|-----2-4-2-------4-2--4-6-4-2--4--6--| x2
A|-5---0-2-0-5--4--2-0--2-4-2-0--2--4--|
E|-3---------3--2----------------------|

e|--------------------|
B|--------------------|
G|--------------------|
D|-----2-4-2-------4--|
A|-5---0-2-0-5--4--2--|
E|-3---------3--2-----|
                              
e|----------------------------------------|
B|----------------------------------------|
G|-9----7--9/12--12--------4----4-4--5----|
D|----------------------------------------|
A|-7----5--7/10--10--------2----2-2--3----|
E|----------------------------------------|

e|---------------------------------------|
B|---------------------------------------|
G|-9----7--9/12--12--------8---8-8--9----|
D|---------------------------------------|
A|-7----5--7/10--10--------6---6-6--7----|
E|---------------------------------------|

e|----------------------------------------|
B|----------------------------------------|
G|-9----7--9/12--12--------4----4-4--5----|
D|----------------------------------------|
A|-7----5--7/10--10--------2----2-2--3----|
E|----------------------------------------|

e|------------------------------------------|
B|------------------------------------------|
G|-9----7--9/12--12-------11---11-11--12----|
D|------------------------------------------|
A|-7----5--7/10--10--------9----9--9--10----|
E|------------------------------------------|

e|-------------------------|
B|-------------------------|
G|-------------------------|
D|-5-5-5-7-5---4-4-4-5-4\--|
A|-7-7-7-7-7-5-5-5-5-5-5\--|
E|-------------------------|

e|-------------------------|
B|-------------------------|
G|-4------4----5------5----|
D|-4------4----5------5----|
A|-2------2----3------3----|
E|-----2----2------3----3--|

e|-------------------------|
B|-------------------------|
G|-------------------------|
D|-5-5-5-7-5---4-4-4-5-4\--|
A|-7-7-7-7-7-5-5-5-5-5-5\--|
E|-------------------------|

e|------------------------------|
B|------------------------------|
G|-4------4----5------5----5----|
D|-4------4----5--5-5-5----5----|
A|-2------2----3--3-3-3----3----|
E|-----2----2------------3---3--|

e|----------|
B|----------|
G|----------|
D|-5--------|
A|-3--------|
E|-0--------|

e|-------------------------------------------------------------|
B|-------------------------------------------------------------|
G|-------------------------------------------------------------|
D|-------------2--------------2--------------2--------------2--|
A|-------------2--------------2--------------2--------------2--|
E|-0-0-0-0-0-0----0-0-0-0-0-0----0-0-0-0-0-0----0-0-0-0-0-0----|

e|---------------------------------------------------------------|
B|---------------------------------------------------------------|
G|---------------------------------------------------------------|
D|-------------2--------------2--------------2--------------2-3--|
A|-------------2--------------2--------------2--------------2-3--|
E|-0-0-0-0-0-0----0-0-0-0-0-0----0-0-0-0-0-0----0-0-0-0-0-0------|

e|---------------------------------|
B|---------------------------------|
G|---------------------------------|
D|-------------2--------------2-3--| x4
A|-------------2--------------2-3--|
E|-0-0-0-0-0-0----0-0-0-0-0-0------|
    
e|---------------------------------------------------------------|
B|---------------------------------------------------------------|
G|---------------------------------------------------------------|
D|-------------2--------------2--------------2--------------2-3--|
A|-------------2--------------2--------------2--------------2-3--|
E|-0-0-0-0-0-0----0-0-0-0-0-0----0-0-0-0-0-0----0-0-0-0-0-0------|

e|---------------------------------------------------------------|
B|---------------------------------------------------------------|
G|---------------------------------------------------------------|
D|-------------2--------------2--------------2--------------2-3--|
A|-------------2--------------2--------------2--------------2-3--|
E|-0-0-0-0-0-0----0-0-0-0-0-0----0-0-0-0-0-0----0-0-0-0-0-0------|

e|-------------------------------------------------------------------|
B|-------------------------------------------------------------------|
G|-------------------------------------------------------------------|
D|-------------------------------------------------------------------|
A|-------------7~--------------7/8--------------5~--------------5/8--|
E|-0-0-0-0-0-0-----0-0-0-0-0-0------0-0-0-0-0-0-----0-0-0-0-0-0------|

e|-------------------------------------------------------------------|
B|-------------------------------------------------------------------|
G|-------------------------------------------------------------------|
D|-------------------------------------------------------------------|
A|-------------7~--------------7/8--------------5~--------------5\2--|
E|-0-0-0-0-0-0-----0-0-0-0-0-0------0-0-0-0-0-0-----0-0-0-0-0-0------|

e|---------------------------------------------------------------|
B|---------------------------------------------------------------|
G|---------------------------------------------------------------|
D|-------------2--------------2--------------2--------------2-3--|
A|-------------2--------------2--------------2--------------2-3--|
E|-0-0-0-0-0-0----0-0-0-0-0-0----0-0-0-0-0-0----0-0-0-0-0-0------|

e|---------------------------------------------------------------|
B|---------------------------------------------------------------|
G|---------------------------------------------------------------|
D|-------------2--------------2--------------2--------------2-3--|
A|-------------2--------------2--------------2--------------2-3--|
E|-0-0-0-0-0-0----0-0-0-0-0-0----0-0-0-0-0-0----0-0-0-0-0-0------|

e|--------------------------------------|
B|--------------------------------------|
G|--------------------------------------|
D|-------------2-------------2-------3--| x4
A|-------------2-------------2-------3--|
E|-0-0-0-0-0-0---0-0-0-0-0-0---0-0-0----|

e|----------------------------------------|
B|----------------------------------------|
G|----------------------------------------|
D|----------------------------------------|
A|----------------------------------------|
E|-0-0-0-0-0-0-0--0-0-0-0-0-0-0--0-0-0-0--|

e|--------------------------------------------|
B|--------------------------------------------|
G|--------------------------------------------|
D|--------------------------------------------|
A|--------------------------------------------|
E|-0-0-0-0-0-0-0--0-0-0-0-0-0-0--0-0-0-0-0-0--|

e|--------------------------------------|
B|--------------------------------------|
G|--------------------------------------|
D|-------------2-------------2-------3--| x4
A|-------------2-------------2-------3--|
E|-0-0-0-0-0-0---0-0-0-0-0-0---0-0-0----|

e|----------------------------------------|
B|----------------------------------------|
G|----------------------------------------|
D|----------------------------------------|
A|----------------------------------------|
E|-0-0-0-0-0-0-0--0-0-0-0-0-0-0--0-0-0-0--|

e|--------------------------------------------|
B|--------------------------------------------|
G|--------------------------------------------|
D|--------------------------------------------|
A|--------------------------------------------|
E|-0-0-0-0-0-0-0--0-0-0-0-0-0-0--0-0-0-0-0-0--|


[Main solo]

e|-t19p15p12-t19p15p12-t19p15p12-t19p15p12-t19p15p12-t19p15p12-t19p15p12-|
B|-----------------------------------------------------------------------|
G|-----------------------------------------------------------------------|
D|-----------------------------------------------------------------------|
A|-----------------------------------------------------------------------|
E|-----------------------------------------------------------------------|

e|-t19p15p12--|
B|------------|
G|------------|
D|------------|
A|------------|
E|------------|

e|-t20p15p12-t20p15p12-t20p15p12-t20p15p12-t20p15p12-t20p15p12-t20p15p12-|
B|-----------------------------------------------------------------------|
G|-----------------------------------------------------------------------|
D|-----------------------------------------------------------------------|
A|-----------------------------------------------------------------------|
E|-----------------------------------------------------------------------|

e|-t20p15p12--|
B|------------|
G|------------|
D|------------|
A|------------|
E|------------|

e|------------------------------------------------------------------------|
B|-t19p15p12-t19p15p12-t19p15p12-t19p15p12-t19p15p12-t19p15p12-t19p15p12--|
G|------------------------------------------------------------------------|
D|------------------------------------------------------------------------|
A|------------------------------------------------------------------------|
E|------------------------------------------------------------------------|

e|------------|
B|-t19p15p12--|
G|------------|
D|------------|
A|------------|
E|------------|

e|------------------------------------------------------------------------|
B|-t20p15p12-t20p15p12-t20p15p12-t20p15p12-t20p15p12-t20p15p12-t20p15p12--|
G|------------------------------------------------------------------------|
D|------------------------------------------------------------------------|
A|------------------------------------------------------------------------|
E|------------------------------------------------------------------------|

e|------------|
B|-t20p15p12--|
G|------------|
D|------------|
A|------------|
E|------------|

e|------------------------------------------------------------------------|
B|-t17p13p10-t17p13p10-t17p13p10-t17p13p10-t17p13p10-t17p13p10-t17p13p10--|
G|------------------------------------------------------------------------|
D|------------------------------------------------------------------------|
A|------------------------------------------------------------------------|
E|------------------------------------------------------------------------|

e|------------|
B|-t17p13p10--|
G|------------|
D|------------|
A|------------|
E|------------|

e|------------------------------------------------------------------------|
B|-t18p13p10-t18p13p10-t18p13p10-t18p13p10-t18p13p10-t18p13p10-t18p13p10--|
G|------------------------------------------------------------------------|
D|------------------------------------------------------------------------|
A|------------------------------------------------------------------------|
E|------------------------------------------------------------------------|

e|------------|
B|-t18p13p10--|
G|------------|
D|------------|
A|------------|
E|------------|

e|-----------------------------------------------------------------------------|
B|-t17p12h14-t17p12-t17p10-t17p12-t17p10-t17p8-t17p10-t17p8-t17p7-t17p8-t17p7--|
G|-----------------------------------------------------------------------------|
D|-----------------------------------------------------------------------------|
A|-----------------------------------------------------------------------------|
E|-----------------------------------------------------------------------------|

e|---------|
B|-t17p5~--|
G|---------|
D|---------|
A|---------|
E|---------|


e|-------------------------14-14-14-15-15-15-17-17-17----------17-17-17-17--|
B|-/12-12-12-12-12-12-12~-----------------------------15-15-15--------------|
G|--------------------------------------------------------------------------|
G|--------------------------------------------------------------------------|
A|--------------------------------------------------------------------------|
E|--------------------------------------------------------------------------|

e|-22b24~--22b24-22b24~~--|
B|------------------------|
G|------------------------|
D|------------------------|
A|------------------------|
E|------------------------|

e|-----15-17p15-------------15h17p15-------------15h17p15--------------|
B|-/17----------17-15-17h19----------17-15-17h19----------17-15-17h19--|
G|---------------------------------------------------------------------|
D|---------------------------------------------------------------------|
A|---------------------------------------------------------------------|
E|---------------------------------------------------------------------|

e|-15h17p15----------15-15h17p15-------------15h17p15-------15h17--|
B|----------17-17-19-------------17-15-17h19----------17p15--------|
G|-----------------------------------------------------------------|
D|-----------------------------------------------------------------|
A|-----------------------------------------------------------------|
E|-----------------------------------------------------------------|

e|-19p17p15----19p17p15----19p17p15----19p17p15-----|
B|----------15----------15----------15----------15--|
G|--------------------------------------------------|
D|--------------------------------------------------|
A|--------------------------------------------------|
E|--------------------------------------------------|

e|-19p17----19p17----19p17----19p17p15--|
B|-------15-------15-------15-----------|
G|--------------------------------------|
D|--------------------------------------|
A|--------------------------------------|
E|--------------------------------------|

e|-------15-------15-------15-------15--|
B|-18b20----18b20----18b20----18b20-----|
G|--------------------------------------|
D|--------------------------------------|
A|--------------------------------------|
E|--------------------------------------|

e|-18b19-15-------15-18b19-15-------15--|
B|----------18b20-------------18b20-----|
G|--------------------------------------|
D|--------------------------------------|
A|--------------------------------------|
E|--------------------------------------|

e|-19p17p15-17--17p15----15-----------------------------------------|
B|--------------------19-----19p17p15-17--17p15\13-15--15p13\12-13--|
G|------------------------------------------------------------------|
D|------------------------------------------------------------------|
A|------------------------------------------------------------------|
E|------------------------------------------------------------------|

e|--------------------------------------------------------------------------|
B|-13p12----12--------------------------------------------------------------|
G|-------14----14p12-14p12----12----12-14b16-14b16-14b16-14b16-(16)br14p12--|
D|-------------------------14----14-----------------------------------------|
A|--------------------------------------------------------------------------|
E|--------------------------------------------------------------------------|

e|------------------------------------|
B|------------------------------------|
G|----12----12------------------------|
D|-14----14----14-13-12---------------|
A|----------------------14-13-12-10~--|
E|------------------------------------|

e|------------------------------------------|
B|--------15--------15--------15--------15--|
G|--------15--------15--------15--------15--|
D|-/17-17-----17-17-----17-17-----17-17-----|
A|------------------------------------------|
E|------------------------------------------|

e|------------------------------------|
B|-17b18~~-17b18~~-(18)br17p15----15--|
G|-17b18~~-17b18~~-(18)br17p15----15--|
D|----------------------------17------|
A|------------------------------------|
E|------------------------------------|

e|------------------------------------|
B|--------15--------15-----17-17-15~--|
G|--------15--------15--x--17-17-15~--|
D|-/17-17-----17-17-----x-------------|
A|------------------------------------|
E|------------------------------------|

                                                              end solo
e|----------15-------15-------15-------15-------15-------15-15-------|
B|-15-18b20----18b20----18b20----18b20----18b20----18b20----18b20~~--|
G|-------------------------------------------------------------------|
D|-------------------------------------------------------------------|
A|-------------------------------------------------------------------|
E|-------------------------------------------------------------------|


e|------------------------------------------------|
B|------------------------------------------------|
G|------------------------------------------------|
D|------------------------------------------------|
A|-----------------5-5-5-5-5-5-4-4-4-3-3-3-2-2-2--|
E|-3-3-3-3-3-3-3----------------------------------|

e|--------------------------------------|
B|--------------------------------------|
G|--------------------------------------|
D|-------------2-------------2-------3--|  x4
A|-------------2-------------2-------3--|
E|-0-0-0-0-0-0---0-0-0-0-0-0---0-0-0----|


e|------------------------------------------------|
B|------------------------------------------------|
G|------------------------------------------------|
D|------------------------------------------------|
A|-----------------5-5-5-5-5-5-4-4-4-3-3-3-2-2-2--|
E|-0-0-0-0-0-0-0----------------------------------|


[Last solo]

e|----------------------------------------------------------------------|
B|-8-8-8-7----10-10-10-8----12-12-12-10--12p10\8-10--10p8\7-8--8p7\5-7--|
G|---------7-------------9----------------------------------------------|
D|----------------------------------------------------------------------|
A|----------------------------------------------------------------------|
E|----------------------------------------------------------------------|

e|----------|
B|-7p5\3-5--|
G|----------|
D|----------|
A|----------|
E|----------|

e|-------------------------------------------------------------------------|
B|-8-8-8-7----10-10-10-8----12-12-12-10--12p10\8-10--10p8\7-8--13p12\10-12-|
G|---------7-------------9-------------------------------------------------|
D|-------------------------------------------------------------------------|
A|-------------------------------------------------------------------------|
E|-------------------------------------------------------------------------|

e|-------------|
B|-12p10\8-10--|
G|-------------|
D|-------------|
A|-------------|
E|-------------|

e|----------------------------------------------------------------------|
B|-8-8-8-7----10-10-10-8----12-12-12-10--12p10\8-10--10p8\7-8--8p7\5-7--|
G|---------7-------------9----------------------------------------------|
D|----------------------------------------------------------------------|
A|----------------------------------------------------------------------|
E|----------------------------------------------------------------------|

e|----------|
B|-7p5\3-5--|
G|----------|
D|----------|
A|----------|
E|----------|

e|----------------------------------------------------------------------|
B|-8-8-8-7----10-10-10-8----12-12-12-10--12p10\8-10--10p8\7-8--8p7\5-7--|
G|---------7-------------9----------------------------------------------|
D|----------------------------------------------------------------------|
A|----------------------------------------------------------------------|
E|----------------------------------------------------------------------|

                                        end solo                     
e|----------------------------------------------|
B|-7p5\3-5--5p3\2-3--3p2p0-2--------------------|
G|----------------------------6p4\2-4--4p2p0-2--|
D|----------------------------------------------|
A|----------------------------------------------|
E|----------------------------------------------|

                             
e|--------------------------------------|
B|--------------------------------------|
G|--------------------------------------|
D|-------------2-------------2-------3--| x4
A|-------------2-------------2-------3--|
E|-0-0-0-0-0-0---0-0-0-0-0-0---0-0-0----|

e|-----------------------------|
B|-----------------------------|
G|-----------------------------|
D|-----------------------------|
A|-----5------5------5------5--|
E|-3-3-3--3-3-3--3-3-3--3-3-3--|

e|--------------------------------------|
B|--------------------------------------|
G|--------------------------------------|
D|-------------2-------------2-------3--|
A|-------------2-------------2-------3--|
E|-0-0-0-0-0-0---0-0-0-0-0-0---0-0-0----|

e|-----------------------------|
B|-----------------------------|
G|-----------------------------|
D|-----------------------------|
A|-----5------5------5------5--|
E|-3-3-3--3-3-3--3-3-3--3-3-3--|

                                
e|--------------------------------|
B|--------------------------------|
G|--------------------------------|
D|--------------------------------| x3
A|-------------2-2------3------3--|
E|-0-0-0-0-0-0-0-0--1-1-1--1-1-1--|


e|-----------------------------------------------|
B|-----------------------------------------------|
G|-----------------------------------------------|
D|-----------------------------------------------|
A|-------------2-2------5------5------5------5---|
E|-0-0-0-0-0-0-0-0--3-3-3--3-3-3--3-3-3--3-3-3---|


e|--------------------------------------|
B|--------------------------------------|
G|--------------------------------------|
D|-------------2-------------2-------3--|
A|-------------2-------------2-------3--|
E|-0-0-0-0-0-0---0-0-0-0-0-0---0-0-0----|

                        end of song
e|--------------------------------|
B|--------------------------------|
G|--------------------------------|
D|--------------------------------|
A|-2-2-2-2-2-2-2---2-2-2-2-2-2-2--|
E|-0-0-0-0-0-0-0---0-0-0-0-0-0-0--|


(rhythm for main solo)
e|--------------------------------------|
B|--------------------------------------|
G|--------------------------------------|
D|-------------2-------------2-------3--|
A|-------------2-------------2-------3--|
E|-0-0-0-0-0-0---0-0-0-0-0-0---0-0-0----|

e|--------------------------------------|
B|--------------------------------------|
G|--------------------------------------|
D|-------------2-------------2-------3--|
A|-------------2-------------2-------3--|
E|-0-0-0-0-0-0---0-0-0-0-0-0---0-0-0----|

e|--------------------------------------|
B|--------------------------------------|
G|--------------------------------------|
D|-------------2-------------2-------3--|
A|-------------2-------------2-------3--|
E|-0-0-0-0-0-0---0-0-0-0-0-0---0-0-0----|

e|--------------------------------------|
B|--------------------------------------|
G|--------------------------------------|
D|-------------2-------------2-------3--|
A|-------------2-------------2-------3--|
E|-0-0-0-0-0-0---0-0-0-0-0-0---0-0-0----|

e|--------------------------------------------|
B|--------------------------------------------|
G|--------------------------------------------|
D|--------------------------------------------|
A|--------------------------------------------|
E|-0-0-0-0-0-0-0--0-0-0-0-0-0-0--0-0-0-0-0-0--|

e|-------------------------------------|
B|-------------------------------------|
G|-------------------------------------|
D|-------------2--2--------------2--2--|
A|-------------2--2--------------2--2--|
E|-0-0-0-0-0-0-------0-0-0-0-0-0-------|

e|-------------------------------------|
B|-------------------------------------|
G|-------------------------------------|
D|-------------2--3--------------5--5--|
A|-------------2--3--------------5--5--|
E|-0-0-0-0-0-0-------3-3-3-3-3-3-3--3--|

e|-------------------------------------|
B|-------------------------------------|
G|-------------------------------------|
D|-------------2--2--------------2--2--|
A|-------------2--2--------------2--2--|
E|-0-0-0-0-0-0-------0-0-0-0-0-0-------|

e|-------------------------------------|
B|-------------------------------------|
G|-------------------------------------|
D|-------------2--3--------------5--5--|
A|-------------2--3--------------5--5--|
E|-0-0-0-0-0-0-------3-3-3-3-3-3-3--3--|

e|-------------------------------------|
B|-------------------------------------|
G|-------------------------------------|
D|-------------5--5--------------5--5--|
A|-------------5--5--------------5--5--|
E|-3-3-3-3-3-3-3--3--3-3-3-3-3-3-3--3--|

e|-------------------------------------|
B|-------------------------------------|
G|-------------------------------------|
D|-------------5--6--------------3--3--|
A|-------------5--6--------------3--3--|
E|-3-3-3-3-3-3-------1-1-1-1-1-1-1--1--|

e|-------------------------------------|
B|-------------------------------------|
G|-------------------------------------|
D|-------------5--5--------------5--5--|
A|-------------5--5--------------5--5--|
E|-3-3-3-3-3-3-3--3--3-3-3-3-3-3-3--3--|

e|-------------------------------------|
B|-------------------------------------|
G|-------------------------------------|
D|-------------5--6--------------3--3--|
A|-------------5--6--------------3--3--|
E|-3-3-3-3-3-3-------1-1-1-1-1-1-1--1--|

e|-----------------------------|
B|-----------------------------|
G|-----------------------------|
D|-----5------5------5------5--|
A|-----5------5------5------5--|
E|-3-3-3--3-3-3--3-3-3--3-3-3--|

e|-------------------------------------|
B|-------------------------------------|
G|-------------------------------------|
D|-------------3--3--------------3--3--|
A|-------------3--3--------------3--3--|
E|-1-1-1-1-1-1-1--1--1-1-1-1-1-1-1--1--|

e|-----------------------------|
B|-----------------------------|
G|-----------------------------|
D|-----5------5------5------5--|
A|-----5------5------5------5--|
E|-3-3-3--3-3-3--3-3-3--3-3-3--|
                                  
e|-------------------------------------|
B|-------------------------------------|
G|-------------------------------------|
D|-------------3--3--------------3--3--|
A|-------------3--3--------------3--3--|
E|-1-1-1-1-1-1-1--1--1-1-1-1-1-1-1--1--|



***********************************

/ = slide up
\ = slide down
h = hammer on 
p = pull off
b = bend
br = release
x = muted string
t = tap (with finger or pick)
~ = vibrato
() = ghost note

***********************************

9. Knights of Cydonia by Muse

Knights of Cydonia

Considering Muse is featured on all of the soundtracks of the very popular Twilight Movies (LINK 3), playing a song by them is going to go over well at a party. Knights of Cydonia (which is partly named after the region of Mars called Cydonia where some people believe life once existed)(LINK 4) is a fast, exciting song and everyone will listen when you play its opening riff.

The song is inspired by corrupt political officials (LINK 4), so if you are at a party with a few strongly opinionated people, singing the lyrics might make the party a bit more…”entertaining.” The song is fun to play and looks especially impressive to people who don’t know how to play guitar because your right hand will be going crazy tremolo picking.

With this song you’ll be able to grab your friends’ attention and hold it with the tremolo picking. And, the song is also fun to sing and if you can sing, you can easily show off your voice too, which isn’t gonna hurt anyone.

Tab:

(Guitar 1) 
w/distortion and vibrato
e|------------------------------|
B|------------------------------|
G|------------------------------|
D|------------------------------| x4
A|------------------------------|
E|-0----2---3------5--5----7----|

(Guitar 2) Acoustic
e|-------------------------------------------|
B|----------------------2-2-2--2-2-2--4-4-4--|
G|----------------------2-2-2--2-2-2--4-4-4--|
D|-2----4-4-4--5-5-5----2-2-2--2-2-2--4-4-4--|
A|-2----4-4-4--5-5-5----0-0-0--0-0-0--2-2-2--|
E|-0----2-2-2--3-3-3-------------------------|

Overdub on 3rd and 4th Intro. The rhythm isn´t bang on but you get the idea.
e|---------------------------|------------------------|
B|---------------------------|------------------------|
G|---------------------------|------------------------|
D|---------------------------|------------------------|
A|-7---5-7-9---7-9-10---9-10-|-12---12-10--9-7-9-7-6--|
E|---------------------------|------------------------|

All Tremolo Picked
e|------------------|
B|------------------|
G|------------------|
D|------------------|
A|------------------|
E|-19/////////////0-|

Slide and Tremolo Pick down the neck.
e|-0----|
B|-0----|
G|-0----|
D|-2----|
A|-2----|
E|-0----|

Using your whammy bar, pick notes and vibrate them gently, but very quickly. You've
be light on the whammy bar otherwise it'll just sound out of tune.
e|---------------------------------------|--------------------------------------|
B|---------------------------------------|--------------------------------------|
G|---------------------------------------|--------------------------------------|
D|-5---4--2--0-----2--4--5----4--2--0----|-1----2--4--2---5--7--8----7--8--9----|
A|---------------------------------------|--------------------------------------|
E|---------------------------------------|--------------------------------------|

e|----------------|----------------|----------------|----------------------|
B|----------------|----------------|----------------|----------------------|
G|-8---5--0--7----|-8---7--5--3----|-7---5--3--5----|-3--1--3----4----5----|
D|----------------|----------------|----------------|----------------------|
A|----------------|----------------|----------------|----------------------|
E|----------------|----------------|----------------|----------------------|

All Tremolo Picked
e|-11---10--8--6---|-8--10--11---10--8--6----|-7---8--10--8--|-11--13--14---13--14--15----|
B|-----------------|-------------------------|---------------|----------------------------|
G|-----------------|-------------------------|---------------|----------------------------|
D|-----------------|-------------------------|---------------|----------------------------|
A|-----------------|-------------------------|---------------|----------------------------|
E|-----------------|-------------------------|---------------|----------------------------|

e|-19--16-----18---|-19--18-16-14---|--18--16-14-16--|-14-12-14---15---16----|
B|---------16------|----------------|----------------|-----------------------|
G|-----------------|----------------|----------------|-----------------------|
D|-----------------|----------------|----------------|-----------------------|
A|-----------------|----------------|----------------|-----------------------|
E|-----------------|----------------|----------------|-----------------------|

For those of you who are interested in it, here is the trumpet part from the above two,
obviously it's hard to recreate the sound of a trumpet's valves on guitar, so it doesn't sound
exactly right. I'm pretty sure there's a harmony in there somewhere, but these are the 
notes played.
e|----------------|----------------|------------------|-------------|---------------------|
B|----------------|----------------|------------------|-----------7-|-----------8---------|
G|-------8-7-5----|-------8-7-5----|-------8-7-5-7----|-5h7h8-------|-8-------8---8-------|
D|---5-8----------|---5-8----------|---5-8------------|-------------|---8-5-8-------8-5---|
A|-6--------------|-6--------------|-6----------------|-------------|---------------------|
E|----------------|----------------|------------------|-------------|---------------------|

e|----------------|----------------|------------------|-----------------|-----------------------|
B|-9----4h6h8-----|-9--7-5-4h5h7---|-8--9-11-9h11h12--|12---14-16-14-12-|-11---11-12-14-12-9----|
G|----------------|----------------|------------------|-----------------|-----------------------|
D|----------------|----------------|------------------|-----------------|-----------------------|
A|----------------|----------------|------------------|-----------------|-----------------------|
E|----------------|----------------|------------------|-----------------|-----------------------|

Guitar transition to verse. (w/Delay and Reverb)
e|-----------------------------|
B|-----------------------------|
G|-4--4-4-4-6-6-6-6-6-6-4-4-3--|
D|-----------------------------|
A|-----------------------------|
E|-----------------------------|

[Verse]
Gtr. Play each chord for a bar, strumming lightly and using your whammy bar to add
to the chords.
e|--4--|-----|-----|-----|-----|-----|--3--|-----|
B|--4--|--4--|--9--|--4--|--8--|--9--|--3--|--4--|
G|--4--|--4--|--9--|--4--|--8--|--9--|--4--|--4--|
D|--6--|--4--|--9--|--4--|--8--|--9--|--5--|--4--|
A|--6--|--2--|--7--|--2--|--6--|--7--|--5--|--2--|
E|--4--|-----|-----|-----|-----|-----|--3--|-----|

"How can we win?"
e|-7--------|-7--------|-----8----|--7--|--7--|--8--|--7--|--7--|--7--|
B|---8------|---7------|---8------|--8--|--7--|--8--|--8--|--7--|--8--|
G|-----9----|-----8----|-9--------|--7--|--8--|--9--|--7--|--8--|--9--|
D|----------|----------|----------|-----|-----|-----|-----|-----|-----|
A|----------|----------|----------|-----|-----|-----|-----|-----|-----|
E|----------|----------|----------|-----|-----|-----|-----|-----|-----|

[Re-Intro]
(Guitar 1) w/distortion and vibrato
e|------------------------------|
B|------------------------------|
G|------------------------------|
D|------------------------------| x4
A|------------------------------|
E|-0----2---3------5--5----7----|

(Guitar 2) Acoustic
e|-------------------------------------------|
B|----------------------2-2-2--2-2-2--4-4-4--|
G|----------------------2-2-2--2-2-2--4-4-4--|
D|-2----4-4-4--5-5-5----2-2-2--2-2-2--4-4-4--|
A|-2----4-4-4--5-5-5----0-0-0--0-0-0--2-2-2--|
E|-0----2-2-2--3-3-3-------------------------|

Overdub on 3rd and 4th Intro. The rhythm isn´t bang on but you get the idea.
e|---------------------------|------------------------|
B|---------------------------|------------------------|
G|---------------------------|------------------------|
D|---------------------------|------------------------|
A|-7---5-7-9---7-9-10---9-10-|-12---12-10--9-7-9-7-6--|
E|---------------------------|------------------------|

All Tremolo Picked
e|-19\\\\\\\\-|-------------|
B|------------|-------------|
G|------------|-------------|
D|------------|-------------|
A|------------|-------------|
E|------------|-0-----------|

Slide and tremolo pick, then hit the open E as hard as possible.
Synth Transition
e|------------------------|
B|-------------------5----|
G|-------------4---4------|
D|-------5---5---5--------| x4
A|-7---7---7--------------|
E|---7--------------------|

Synth arr. for Guitar
"No one´s going to take me alive"
e|------------------------|
B|-------------------5----|
G|-------------4---4------|
D|-------5---5---5--------| x2
A|-7---7---7--------------|
E|---7--------------------|

e|------------------------|
B|-------------------3----|
G|-------------4---4------|
D|-------4---4---4--------| x2
A|-5---5---5--------------|
E|---7--------------------|

"The time has come to make things right"
e|------------------------|
B|------------------------|
G|-------------------6----|
D|-------------7---7------| x2
A|-4---4-7-4-7---7--------|
E|---5--------------------|

e|------------------------|
B|-------------------5----|
G|-------------4---4------|
D|-------5---5---5--------| x2
A|-7---7---7--------------|
E|---7--------------------|

"You and I must fight for our right"
e|------------------------|
B|-------------------5----|
G|-------------4---4------|
D|-------5---5---5--------| x2
A|-7---7---7--------------|
E|---7--------------------|

e|------------------------|
B|-------------------3----|
G|-------------4---4------|
D|-------4---4---4--------| x2
A|-5---5---5--------------|
E|---7--------------------|

"You and I must fight to survive"
e|------------------------|
B|------------------------|
G|-------------------6----|
D|-------------7---7------| x2
A|-4---4-7-4-7---7--------|
E|---5--------------------|

e|------------------------|
B|-------------------5----|
G|-------------4---4------|
D|-------5---5---5--------| x2
A|-7---7---7--------------|
E|---7--------------------|

(Guitar on repeat)
e|-----------------------------|
B|-----------------------------|
G|--9------9------9------9-9-9-|
D|----9------9------9----------| x4
A|------10-----10-----10-------|
E|-----------------------------|
All P.M

e|----------------------------|
B|----------------------------|
G|--7------7------7-----7-7-7-|
D|----9------9------9---------| x4
A|------9------9------9-------|
E|----------------------------|
All P.M

e|----------------------------|
B|----------------------------|
G|--6------6------6-----6-6-6-|
D|----7------7------7---------| x4
A|------7------7------7-------|
E|----------------------------|
All P.M

e|-----------------------------|
B|-----------------------------|
G|--9------9------9------9-9-9-|
D|----9------9------9----------| x4
A|------10-----10-----10-------|
E|-----------------------------|
All P.M

[Riff]
e|-----------------------------------------------|
B|-----------------------------------------------|
G|-----------------------------------------------|
D|----------------------------------------5------|
A|-5h7-7-7-7--5h7-7-7-7--5h7-7-7-7--5-7-5---5-7--|
E|-----------------------------------------------|

e|-----------------------------------------------|
B|-----------------------------------------------|
G|-----------------------------------------------|
D|-----------------------------------------------|
A|-5----------5----------5----------5-----5h7-7--|
E|---7-7-7-7----7-7-7-7----7-7-7-7----7-7--------|

e|-----------------------------------------------|
B|-----------------------------------------------|
G|-----------------------------------------------|
D|-----------------------------------------------|
A|-7p0-0-0-0--7p0-0-0-0--7p0-0-0-0--7p0-0--------|
E|----------------------------------------7-5-3--|

e|---------------------------------------------|
B|---------------------------------------------|
G|---------------------------------------------|
D|---------------------------------------------|
A|---------------------------------------------|
E|-3p0-0-0-0--3p0-0-0-0--3p0-0-0-0--3p0-0-5h7--|

End Solo w/ heavy Reverb
e|-12----------------10--------9----7--5h7p5----3--------|
B|-------12----------------------------------------------|
G|-------------12----------------------------------------|
D|-------------------------------------------------------| x 2
A|-------------------------------------------------------|
E|-------------------------------------------------------|
Tremolo Pick All Notes

End Riff
e|---------------------------------------------|
B|---------------------------------------------|
G|---------------------------------------------|
D|---------------------------------------------|
A|---------------------------------------------|
E|-3p0-0-0-0--3p0-0-0-0--3p0-0-0-0--3p0-3-5-7--|

e|----------------------------------------------|
B|----------------------------------------------|
G|----------------------------------------------|
D|----------------------------------------------|
A|---------------------------------5h7-7-5h7-7--|
E|-3p0-0-0-0--3p0-0-0-0--3p0-0-0-0--------------|

e|-------------|
B|-------------|
G|-------------|
D|-------------|
A|-2-----------|
E|-0-----------|

***********************************
| h   Hummer-on
| p   Pull-off
***********************************

8. Cowboys from Hell by Pantera

Cowboys from Hell

Get ready to melt faces and bust guts with this classic Pantera song. It’s a song from Dimebag, (The guitarist most metalheads consider to be the best guitar player of all time and Rolling Stone’s pick for #92 in their list for greatest guitarists of all time) so of course it is going to be impressive.

The intro is extremely impressive looking and sounds impressive and anyone who plays guitar will know that the song is fairly difficult to play. The song is also pretty catchy and has a lot of pinched harmonics so it’ll sound killer.

And then, of course, is the solo. The face-melting, gut busting, spine tingling Dimebag solo. This solo in particular will look incredible to anyone watching you shred through it.

It’s fast, it sounds good, and it is extremely fun to play. Hopefully your friends wanted a makeover, because their face will be melted after you play this song.

Tab:

Band- Pantera
Song- Cowboys From Hell

Gtr I (E A D G B E) - 'Dimebag'
Gtr II (E A D G B E) - 'Dimebag2'
Gtr III (E A D G B E) - 'Dimebag3'
Gtr IV (E A D G B E) - 'Dimebag4'

[Intro]
   Moderate Rock Q=118
           (E)
  4/4
        Gtr I
   H    E. S S S S S    S S S S S S S S S S S S S S S S
e|-------------------|---------------------------------|
B|-------------------|---------------------------------|
G|-------------------|---------------------------------|
D|-------------------|---------------------------------|
A|-------------------|---------------------------------|
E|---------0-0-0-0-0-|-0-0-0-0-0-0-0-0-0-0-0-0-0-0-0-0-|

   S S S S S S S S S S S S S S S S
e|----------------------------------|
B|----------------------------------|
G|----------------------------------|
D|----------------------------------|
A|----------------------------------|
E|-0-0-0-0-0-0-0-0-0-0-0-0-0-0-0-0--|

   S S S S S S S S S S S S S S S S
e|---------------------------------|
B|---------------------------------|
G|---------------------------------|
D|---------------------------------|
A|---------------------------------|
E|-0-0-0-0-0-0-0-0-0-0-0-0-0-0-0-0-|

[Gtr. 2]
   PM------------------------------|
   S  S  S  S  S  S  S  S  S  S  S  S  S  S  E
e|------------------------------------------------|
B|------------------------------------------------|
G|------------------------------------------------|
D|-------------------------------------------12---|
A|-------------12----12----13----12----13h14------|
E|-12-15-12-15----15----15----15----15------------|

    S  S  S  S  S  S  S  S  S  S  S  S  S  S  S S
e|------------------------------------------------|
B|------------------------------------------------|
G|------------------------------------------------|
D|------------------------------------------------|
A|------------------------------------------------|
E|--0--0--0--0--0--0--0--0--0--0--0--0--0--0--0-0-|

   PM------------------------------|
   S  S  S  S  S  S  S  S  S  S  S  S  S  S  E
e|------------------------------------------------|
B|------------------------------------------------|
G|------------------------------------------------|
D|-------------------------------------------12---|
A|-------------12----12----13----12----13h14------|
E|-12-15-12-15----15----15----15----15------------|

    S  S  S  S  S  S  S  S  S  S  S  S  S  S  S S
e|------------------------------------------------|
B|------------------------------------------------|
G|------------------------------------------------|
D|------------------------------------------------|
A|------------------------------------------------|
E|--0--0--0--0--0--0--0--0--0--0--0--0--0--0--0-0-|

   PM------------------------------|
   S  S  S  S  S  S  S  S  S  S  S  S  S  S  E
e|------------------------------------------------|
B|------------------------------------------------|
G|------------------------------------------------|
D|-------------------------------------------12---|
A|-------------12----12----13----12----13h14------|
E|-12-15-12-15----15----15----15----15------------|

    S  S  S  S  S  S  S  S  S  S  S  S  S  S  S S
e|------------------------------------------------|
B|------------------------------------------------|
G|------------------------------------------------|
D|------------------------------------------------|
A|------------------------------------------------|
E|--0--0--0--0--0--0--0--0--0--0--0--0--0--0--0-0-|

                                               E5      A5
   PM------------------|                       PM--------------------|
   S  S  S  S  S  S  S  S  S  S  S  S  +Q      S S S S S S S S S S S S S S E
e|--------------------------------------------|-------------------------------|
B|--------------------------------------------|-------------------------------|
G|--------------------------------------------|-------------------------------|
D|--------------------------------------------|---------2---2---------------0-|
A|-------------12----12----13-12-10-----------|-2---2---0---0---1---0---1h2---|
E|-12-15-12-15----15----15----------12-(12)\--|-0-3-0-3---3---3---3---3-------|

                                               PM--------------------|
   S  S  S  S  S  S  S  S  S  S  S  S  +Q      S S S S S S S S S S S S S S E
e|--------------------------------------------|-------------------------------|
B|--------------------------------------------|-------------------------------|
G|--------------------------------------------|-------------------------------|
D|--------------------------------------------|---------2---2---------------0-|
A|-------------------------13-12-10-----------|-2---2---0---0---1---0---1h2---|
E|--0--0--0--0--0--0--0--0----------12-(12)\--|-0-3-0-3---3---3---3---3-------|

[Gtr III]
    H                       S  S  S  S  +Q      W
e|--------------------------------------------|-------------------------------|
B|--------------------------------------------|-------------------------------|
G|--------------------------------------------|-------------------------------|
D|--------------------------------------------|-------------------------------|
A|-------------------------13-12-10-----------|-------------------------------|
E|----------------------------------12-(12)\--|-------------------------------|

  E5      A5
  Gtrs I, II
  PM--------------------|
  S S S S S S S S S S S S S S E
e|-------------------------------|
B|-------------------------------|
G|-------------------------------|
D|---------2---2---------------0-|
A|-2---2---0---0---1---0---1h2---|
E|-0-3-0-3---3---3---3---3-------|

  E5      A5                      E5      A5            E5
  PM--------------------|         PM------------|
  S S S S S S S S S S S S S S E   S S S S S S S S S S S S Q
e|-------------------------------|-----------------------------|
B|-------------------------------|-----------------------------|
G|-------------------------------|-----------------------------|
D|---------2---2---------------0-|---------2---2---------------|
A|-2---2---0---0---1---0---1h2---|-2---2---0---0---1-0---2-----|
E|-0-3-0-3---3---3---3---3-------|-0-3-0-3---3---3-----3-0-----|

  E5      A5
  PM--------------------|
  S S S S S S S S S S S S S S E
e|-------------------------------|
B|-------------------------------|
G|-------------------------------|
D|---------2---2---------------0-|
A|-2---2---0---0---1---0---1h2---|
E|-0-3-0-3---3---3---3---3-------|

  E5      A5                      E5      A5
  PM--------------------|         PM--------------------|
  S S S S S S S S S S S S S S E   S S S S S S S S S S S S S S E
e|-------------------------------|-------------------------------|
B|-------------------------------|-------------------------------|
G|-------------------------------|-------------------------------|
D|---------2---2---------------0-|---------2---2---------------0-|
A|-2---2---0---0---1---0---1h2---|-2---2---0---0---1---0---1h2---|
E|-0-3-0-3---3---3---3---3-------|-0-3-0-3---3---3---3---3-------|

  E5      A5            E5     N.C.(E)
                               Gtr I
  PM------------|              PM--------------------|
                                                       |-3-|
  S S S S S S S S S S S S Q    S S S S S S S S S S S S S S S E
e|----------------------------|---------------------------------|
B|----------------------------|---------------------------------|
G|----------------------------|---------------------------------|
D|---------2---2--------------|-------------------------------0-|
A|-2---2---0---0---1-0---2----|-------------------------0h1h2---|
E|-0-3-0-3---3---3-----3-0----|-0-0---0---0---0---0---0---------|

[Gtrs I, II]
  PM--------------------|
                          |-3-|
  S S S S S S S S S S S S S S S E
e|-----------------------------------|
B|-----------------------------------|
G|-----------------------------------|
D|-------------------------------0---|
A|-------------------------0h1h2-----|
E|-0-0---0---0---0---0---0-----------|

  PM--------------------|
                          |-3-|
  S S S S S S S S S S S S S S S E
e|---------------------------------|
B|---------------------------------|
G|---------------------------------|
D|-------------------------------0-|
A|-------------------------0h1h2---|
E|-0-0---0---0---0---0---0---------|

  PM------------|                   PM--------------------|
                  |-3-|   |-3-|                             |-3-|
  S S S S S S S S S S S E S S S E   S S S S S S S S S S S S S S S E
e|---------------------------------|---------------------------------|
B|---------------------------------|---------------------------------|
G|---------------------------------|---------------------------------|
D|-----------------------0-------0-|-------------------------------0-|
A|-----------------0h1h2---0h1h2---|-------------------------0h1h2---|
E|-0-0---0---0---0-----------------|-0-0---0---0---0---0---0---------|

  PM------------|                       PM--------------------|
                  |-3-|     |-3-|                               |-3-|
  S S S S S S S S S S S S S S S S S S   S S S S S S S S S S S S S S S E
e|-------------------------------------|---------------------------------|
B|-------------------------------------|---------------------------------|
G|-------------------------------------|---------------------------------|
D|-------------------------------------|-------------------------------0-|
A|-----------------0h1p0-----0h1p0-----|-------------------------0h1h2---|
E|-0-0---0---0---0-------3-3-------3-1-|-0-0---0---0---0---0---0---------|

  PM------------|
                  |-3-|     |-3-|
  S S S S S S S S S S S S S S S S S S
e|-------------------------------------|
B|-------------------------------------|
G|-------------------------------------|
D|-------------------------------------|
A|-----------------0h1p0-----0h1p0-----|
E|-0-0---0---0---0-------3-3-------3-1-|

[Verse 1 and 2]
    PM------------------------------------------------------|
                                                              |-3-|
    S S S S S S S S S S S S S S S S   S S S S S S S S S S S S S S S E
e|----------------------------------|---------------------------------|
B|o---------------------------------|---------------------------------|
G|----------------------------------|---------------------------------|
D|----------------------------------|-------------------------------0-|
A|o---------------------------------|-------------------------0h1h2---|
E|--0-0---0---0---0---0---0-0-0-0---|-0-0---0---0---0---0---0---------|

  PM----------------------------|
  S S S S S S S S S S S S S S S S
e|------------------------------------|
B|------------------------------------|
G|------------------------------------|
D|------------------------------------|
A|------------------------------------|
E|-0-0---0---0---0---0---0-0-0-0------|

  PM------------|
                  |-3-|     |-3-|
  S S S S S S S S S S S S S S S S S S
e|-------------------------------------|
B|-------------------------------------|
G|-------------------------------------|
D|-------------------------------------|
A|-----------------0h1p0-----0h1p0-----|
E|-0-0---0---0---0-------3-3-------3-1-|

  PM------------------------------------------------------|
                                                            |-3-|
  S S S S S S S S S S S S S S S S   S S S S S S S S S S S S S S S E
e|---------------------------------|-----------------------------------|
B|---------------------------------|-----------------------------------|
G|---------------------------------|-----------------------------------|
D|---------------------------------|-------------------------------0---|
A|---------------------------------|-------------------------0h1h2-----|
E|-0-0---0---0---0---0---0-0-0-0---|-0-0---0---0---0---0---0-----------|

  N.C.(E)
  PM----------------------------|
  S S S S S S S S S S S S S S S S
e|---------------------------------|
B|---------------------------------|
G|---------------------------------|
D|---------------------------------|
A|---------------------------------|
E|-0-0---0---0---0---0---0-0-0-0-0-|

                                        G5                    G#5
    PM----------|                       PM------------------|
                  |-3-|     |-3-|
  S S S S S S S S S S S S S S S S S S   S S S S S S S S S S S S S E.
e|-------------------------------------|------------------------------|
B|-------------------------------------|------------------------------|
G|-------------------------------------|------------------------------|
D|-------------------------------------|------------------------------|
A|-----------------0h1p0-----0h1p0-----|-5-5-5-5-5-5-5-5-5-5-5-6---6--|
E|-0-0---0---0---0-------3-3-------3-1-|-3-3-3-3-3-3-3-3-3-3-3-4---4--|

  G5                A#5A5G#5 N.C.(E)
  PM--------------|          PM-------------------------------
  S S S S S S S S S E. E E   S S S S S S S S S S S S S S S S
e|--------------------------|---------------------------------|
B|--------------------------|---------------------------------|
G|--------------------------|---------------------------------|
D|--------------------------|---------------------------------|
A|-5-5-5-5-5-5-5-5-5-8--7-6-|---------------------------------|
E|-3-3-3-3-3-3-3-3-3-6--5-4-|-0-0---0---0---0---0---0-0-0-0---|

                        E5
 ---------------|
  S S S S S S S S S S S S Q
e|----------------------------|
B|----------------------------|
G|----------------------------|
D|----------------------------|
A|-----------------1-0---2----|
E|-0-0---0---0---0-----3-0----|

[Chorus 1 and 2]
  E5      A5
  PM--------------------|
  S S S S S S S S S S S S S S E
e|-------------------------------|
B|-------------------------------|
G|-------------------------------|
D|---------2---2---------------0-|
A|-2---2---0---0---1---0---1h2---|
E|-0-3-0-3---3---3---3---3-------|

  E5      A5                      E5      A5
  PM--------------------|         PM--------------------|
  S S S S S S S S S S S S S S E   S S S S S S S S S S S S S S E
e|-------------------------------|-------------------------------|
B|-------------------------------|-------------------------------|
G|-------------------------------|-------------------------------|
D|---------2---2---------------0-|---------2---2---------------0-|
A|-2---2---0---0---1---0---1h2---|-2---2---0---0---1---0---1h2---|
E|-0-3-0-3---3---3---3---3-------|-0-3-0-3---3---3---3---3-------|

  E5      A5            E5             A5
  PM------------|              PM--------------------|
  S S S S S S S S S S S S Q    S S S S S S S S S S S S S S E
e|----------------------------|-------------------------------|
B|----------------------------|-------------------------------|
G|----------------------------|-------------------------------|
D|---------2---2--------------|---------2---2---------------0-|
A|-2---2---0---0---1-0---2----|-2---2---0---0---1---0---1h2---|
E|-0-3-0-3---3---3-----3-0----|-0-3-0-3---3---3---3---3-------|

  E5      A5
  PM--------------------|
  S S S S S S S S S S S S S S E
e|--------------------------------|
B|--------------------------------|
G|--------------------------------|
D|---------2---2---------------0--|
A|-2---2---0---0---1---0---1h2----|
E|-0-3-0-3---3---3---3---3--------|

                                  1.
  E5      A5                      E5      A5            E5
  PM--------------------|         PM------------|
  S S S S S S S S S S S S S S E   S S S S S S S S S S S S Q
e|-------------------------------|----------------------------|
B|-------------------------------|----------------------------|
G|-------------------------------|----------------------------|
D|---------2---2---------------0-|---------2---2--------------|
A|-2---2---0---0---1---0---1h2---|-2---2---0---0---1-0---2----|
E|-0-3-0-3---3---3---3---3-------|-0-3-0-3---3---3-----3-0----|

  N.C.(E)
  Gtr I
  PM--------------------|
                          |-3-|
  S S S S S S S S S S S S S S S E
e|---------------------------------|
B|---------------------------------|
G|---------------------------------|
D|-------------------------------0-|
A|-------------------------0h1h2---|
E|-0-0---0---0---0---0---0---------|

  Gtrs I, II
  PM------------|                   PM--------------------|
                  |-3-|   |-3-|                             |-3-|
  S S S S S S S S S S S E S S S E   S S S S S S S S S S S S S S S E
e|---------------------------------|---------------------------------|
B|---------------------------------|---------------------------------|
G|---------------------------------|---------------------------------|
D|-----------------------0-------0-|-------------------------------0-|
A|-----------------0h1h2---0h1h2---|-------------------------0h1h2---|
E|-0-0---0---0---0-----------------|-0-0---0---0---0---0---0---------|

  PM------------|
                  |-3-|     |-3-|
  S S S S S S S S S S S S S S S S S S
e|---------------------------------------|
B|---------------------------------------|
G|---------------------------------------|
D|---------------------------------------|
A|-----------------0h1p0-----0h1p0-------|
E|-0-0---0---0---0-------3-3-------3-1---|

  PM--------------------|
                          |-3-|
  S S S S S S S S S S S S S S S E
e|---------------------------------|
B|---------------------------------|
G|---------------------------------|
D|-------------------------------0-|
A|-------------------------0h1h2---|
E|-0-0---0---0---0---0---0---------|

                                         2.
                                          E5      A5        G5 F#F5
  PM------------|                         PM------------|
                  |-3-|     |-3-|
  S S S S S S S S S S S S S S S S S S     S S S S S S S S S E. E E
e|--------------------------------------|----------------------------|
B|-------------------------------------o|----------------------------|
G|--------------------------------------|----------------------------|
D|--------------------------------------|---------2---2--------------|
A|-----------------0h1p0-----0h1p0-----o|-2---2---0---0-----5--4-3---|
E|-0-0---0---0---0-------3-3-------3-1--|-0-3-0-3---3---3---3--2-1---|

[Guitar solo]
       E5/B                        C                      A/C#
   Gtr III
       ~~                          ~~                       ~~~~
   Q   H           +Q      S S S S H.              +Q       H            +Q
e|-----------------------|-----------------------|-----------------------------|
B|-----------------------|-----------------------|-----------------------------|
G|-----------------------|-----------------------|-----------------------------|
D|-----------------------|-8---8---8-------------|-(8)\---/14-----------(14)\--|
A|-----7-----------(7)\--|---7---7---------------|-----------------------------|
E|-----------------------|-----------------------|-----------------------------|

[Gtrs I, II]
  PM|                     PM--|                    PM--|
  E E E. +S  +H           E   E   E. +S  +H        E   E   E. +S  +H
e|-----------------------|-----------------------|-----------------------------|
B|-----------------------|-----------------------|-----------------------------|
G|-----------------------|---------0--(0)-(0)----|----------2--(2)-(2)---------|
D|-----2--(2)-(2)--------|---------2--(2)-(2)----|----------2--(2)-(2)---------|
A|-----2--(2)-(2)--------|-3---3---3--(3)-(3)----|--4---4---4--(4)-(4)---------|
E|-0-0-------------------|-----------------------|-----------------------------|

               D5            A#5A5
                      ~~~~~~~
    S  S  S  S  S  S  E  +Q      +Q
e|------------------------------------------------|
B|------------------------------------------------|
G|-15----15----15----15-(15)----(15)\-------------|
D|----14----14----14------------------------------|
A|------------------------------------------------|
E|------------------------------------------------|

   PM---|
   E     E     S  S  E   S  E.   E   S      +S
e|------------------------------------------------|
B|------------------------------------------------|
G|------------------------------------------------|
D|--------------7--7--7---------------------------|
A|--5-----5-----5--5--5------8----7---------------|
E|---------------------------6----5---3b3.5==(3)r-|

           E5/B
   PM---|             PM---|            PM---|            PM---|
   |--3--|  |--3---|  |--3--|  |--3--|  |--3--|  |--3--|  |--3--|  |--3--|
   S  S  S  S   S  S  S  S  S  S  S  S  S  S  S  S  S  S  S  S  S  S  S  S
e|--------------------------------------------------------------------------|
B|--------------------------------------------------------------------------|
G|--------------------------------------------------------11-12-15-11h12h15-|
D|--------------------------------------11-12-15-11h12h15-------------------|
A|--------------------11-12-15-11h12h15-------------------------------------|
E|-11-12-15-11h=12h15-------------------------------------------------------|

    E        H..
e|--------------------------------------------------------------------------|
B|--------------------------------------------------------------------------|
G|--------------------------------------------------------------------------|
D|-----------2--------------------------------------------------------------|
A|-----------2--------------------------------------------------------------|
E|--------------------------------------------------------------------------|

           C
                                                          ~~~~~~~~~~~~
   |--3--|  |--3---|  |--3--|              |--3--|  |--3--|
   S  S  S  S   S  S  S  S  S  T  T  T  T  S  S  S  S  S  S      +Q
e|--------------------11-12-15-12h15p12p11-15p12p11-15p12-15b18==(15)r---|
B|-11-12-15-11h=12h15----------------------------------------------------|
G|-----------------------------------------------------------------------|
D|-----------------------------------------------------------------------|
A|-----------------------------------------------------------------------|
E|-----------------------------------------------------------------------|

    E        H..
e|-----------------------------------------------------------------------|
B|-----------------------------------------------------------------------|
G|-----------0-----------------------------------------------------------|
D|-----------2-----------------------------------------------------------|
A|-----------3-----------------------------------------------------------|
E|-----------------------------------------------------------------------|

       A/C#
  |----3----|  |--3--| |--3--|
  E  E      E  S  S  S S  S  S  T  T  T T  T  T  T  T  T T  T  T  T  T  T  T
e|---12-----14-17p14p12---12-14-17p14p12---12-14-17p14p12---12-14-17p14p12-12-|
B|----------------------------------------------------------------------------|
G|----------------------------------------------------------------------------|
D|----------------------------------------------------------------------------|
A|----------------------------------------------------------------------------|
E|----------------------------------------------------------------------------|

   E    H..
e|----------------------------------------------------------------------------|
B|----------------------------------------------------------------------------|
G|------2---------------------------------------------------------------------|
D|------2---------------------------------------------------------------------|
A|------4---------------------------------------------------------------------|
E|----------------------------------------------------------------------------|

             D5                            A#5               A5
  |---------7---------|  |-----6------|  |--------7--------|   |--------7--------|
  S  S  S  S    S  S  S  E   S  S  S  S  E     S  S  S  S  S  +E   S  S    S  S  S
e|---12h15h19p==15p12h15-20p=15p12h15p12--------------------------------------------|
B|---------------------------------------20p===15p12h15p12--------------------------|
G|---------------------------------------------------------20-(20)p15p12h==15p12----|
D|-------------------------------------------------------------------------------20-|
A|----------------------------------------------------------------------------------|
E|----------------------------------------------------------------------------------|

   E          E          +Q               S E.                  E        E
e|----------------------------------------------------------------------------------|
B|----------------------------------------------------------------------------------|
G|----------------------------------------------------------------------------------|
D|------------7----------(7)--------------------------------------------------------|
A|------------5----------(5)----------------8-------------------7-------------------|
E|------------------------------------------6-------------------5--------3----------|

               E5/B                                     C
                        ~~~~                             ~~~
    S  S  S  S  S   S  +Q           E Q      S  S  S  S  H            +Q
e|----------------------------------------|---------------------------------|
B|----------------------------------------|---------------------------------|
G|----------------------------------------|-15----15----15-----------(15)\--|
D|-20p15p12h15p12--14-(14)---------14s5/--|----14----14---------------------|
A|----------------------------------------|---------------------------------|
E|----------------------------------------|---------------------------------|

   PM---|                                   PM---|
   E     E     E.         +S  +H            E     E     E. +S  +H
e|----------------------------------------|---------------------------------|
B|----------------------------------------|---------------------------------|
G|----------------------------------------|--------------0--(0)-(0)---------|
D|--------------2----------(2)-(2)--------|--------------2--(2)-(2)---------|
A|--------------2----------(2)-(2)--------|--3-----3-----3--(3)-(3)---------|
E|--0-----0-------------------------------|---------------------------------|

                        A/C#
                                               ~~~~
   E  a      S  +S       +Q        S   a      +E.  +E   E
e|--------------------------------15-----------------------|
B|---15b17==15r(15)b17==(15)r---------15b17==(15)-(15)rS8/-|
G|---------------------------------------------------------|
D|---------------------------------------------------------|
A|---------------------------------------------------------|
E|---------------------------------------------------------|

  PM-------|
  E         E            E.  +S  +H
e|---------------------------------------------------------|
B|---------------------------------------------------------|
G|------------------------2---(2)-(2)----------------------|
D|------------------------2---(2)-(2)----------------------|
A|-4---------4------------4---(4)-(4)----------------------|
E|---------------------------------------------------------|

             D5                A#5       A5
     E  S  S  S  S  E      +E      +E    E  E
e|-----18----18----18b21==(18)----(18)r\----------------|
B|-/17----17----17--------------------------------------|
G|---------------------------------------7s14-----------|
D|------------------------------------------------------|
A|------------------------------------------------------|
E|------------------------------------------------------|

     PM|
     E  E     S  S  E       S  E.        E  S      +S
e|------------------------------------------------------|
B|------------------------------------------------------|
G|------------------------------------------------------|
D|------------7--7--7-----------------------------------|
A|---5--5-----5--5--5----------8---------7--------------|
E|-----------------------------6---------5--3b3.5==(3)r-|

           E5/B
   |--3--|  |---3---|  |--3--|  |--3--|  |--3--|  |--3--|  |--3--|  |--3--|
   S  S  S  S    S  S  S  S  S  S  S  S  S  S  S  S  S  S  S  S  S  S  S  S
e|-----------------------------------------------------------------------------|
B|-12------------------12----------------12----------------12------------------|
G|----15-14-12---14-15----15-14-12-14-15----15-14-12-14-15----15-14-12-14-15---|
D|-----------------------------------------------------------------------------|
A|-----------------------------------------------------------------------------|
E|-----------------------------------------------------------------------------|

    E        H..
e|-----------------------------------------------------------------------------|
B|-----------------------------------------------------------------------------|
G|-----------------------------------------------------------------------------|
D|-----------2-----------------------------------------------------------------|
A|-----------2-----------------------------------------------------------------|
E|-----------------------------------------------------------------------------|

           C                                        
                                   ~~               
    E.          S  +E        E  a  Q   E      +E    
e|------------------------------------14b16==(14)r-|
B|-12b12.5-----12-(12)b12.5------------------------|
G|-12b12.5-----12-(12)b12.5------------------------|
D|--------------------------14-12h14---------------|
A|-------------------------------------------------|
E|-------------------------------------------------|

    E      H..                                      
e|-------------------------------------------------|
B|-------------------------------------------------|
G|---------0---------------------------------------|
D|---------2---------------------------------------|
A|---------3---------------------------------------|
E|-------------------------------------------------|

         A/C#                                                                              
                                                                                       ~~~~
    S  S  S      +S    S  S  S      +S    S  S  a      +S    a  S      +S   S  a      +E   
e|-12-14--------------12-14--------------12-14--------------12----------------------------|
B|-------15b17==(15)r-------15b17==(15)r-------15b17==(15)r----14pb15r(14)p12-------------|
G|----------------------------------------------------------------------------14b16==(14)-|
D|----------------------------------------------------------------------------------------|
A|----------------------------------------------------------------------------------------|
E|----------------------------------------------------------------------------------------|
                                                                                        
    E     H..                                                                              
e|----------------------------------------------------------------------------------------|
B|----------------------------------------------------------------------------------------|
G|--------2-------------------------------------------------------------------------------|
D|--------2-------------------------------------------------------------------------------|
A|--------4-------------------------------------------------------------------------------|
E|----------------------------------------------------------------------------------------|

        D5                     A#5          A5
  ~~~~~~~~~~~~~
    +E   +E     S   S  S  S  S  S   S  a  S  S  a  S  S  a  S
e|--------------------15-----------19-------20-------21-------|
B|-------------11s=12----12-12s15-----15s17----17s18----18s19-|
G|-(14)-(14)r\------------------------------------------------|
D|------------------------------------------------------------|
A|------------------------------------------------------------|
E|------------------------------------------------------------|

     E    E    +Q            S  E.           E        E
e|------------------------------------------------------------|
B|------------------------------------------------------------|
G|------------------------------------------------------------|
D|--------7----(7)--------------------------------------------|
A|--------5----(5)--------------8------------7----------------|
E|------------------------------6------------5--------3-------|

[Bridge]
         N.C.
                            ~~~~~~~~~~~~~~
    a     +Q        a      +Q        +Q          +Q
e|-22b24-(22)------22b24==(22)------(22)\-------(22)r\-----|
B|---------------------------------------------------------|
G|---------------------------------------------------------|
D|---------------------------------------------------------|
A|---------------------------------------------------------|
E|---------------------------------------------------------|

               PM|              PM|          ~~~       PM|
         S S S S          S S S S   S   S  Q         S S
e|---------------------------------------------------------|
B|---------------------------------------------------------|
G|---------------------------------------------------------|
D|------------------------------------------[5]------------|
A|---------7p5--------------7p5-------7p==5----------------|
E|-------------0-0--------------0-0--------------------0-0-|

[Gtr IV]
               PM|              PM|          ~~~       PM|
           S S S S          S S S S   S   S  Q         S S
e|---------------------------------------------------------|
B|---------------------------------------------------------|
G|---------------------------------------------------------|
D|-------------------------------------------5-------------|
A|---------7p5--------------7p5-------7p==5----------------|
E|-------------0-0--------------0-0--------------------0-0-|

   W                              W
e|------------------------------|---------------------------------|
B|------------------------------|---------------------------------|
G|------------------------------|---------------------------------|
D|------------------------------|---------------------------------|
A|------------------------------|---------------------------------|
E|------------------------------|---------------------------------|

       PM|     PM|      ~~~ PM|       PM|     PM|      ~~~  PM|
   S S S S S S S S S S  Q   S S   S S S S S S S S S S  Q    S  S
e|------------------------------|---------------------------------|
B|------------------------------|---------------------------------|
G|------------------------------|---------------------------------|
D|---------------------[7]------|---------------------[5]---------|
A|-7p5-----7p5-----7p5----------|-7p5-----7p5-----7p5-------------|
E|-----0-0-----0-0----------0-0-|-----0-0-----0-0-----------0--0--|

       PM|     PM|      ~~~ PM|       PM|     PM|      ~~~  PM|
   S S S S S S S S S S  Q   S S   S S S S S S S S S S  Q    S  S
e|------------------------------|---------------------------------|
B|------------------------------|---------------------------------|
G|----------------------2-------|---------------------------------|
D|------------------------------|----------------------5---12-12--|
A|-7p5-----7p5-----7p5----------|-7p5-----7p5-----7p5-------------|
E|-----0-0-----0-0----------0-0-|-----0-0-----0-0-----------------|

    S  S  S  S  S  S  S S  S S S S S S E
e|---------------------------------------|
B|---------------------------------------|
G|-14p12----12s11----11s9----9s7---7s6---|
D|-------14-------12------11-----9-----7-|
A|---------------------------------------|
E|---------------------------------------|

    S  S  S  S  S  S  S S  S S S S S S E
e|---------------------------------------|
B|---------------------------------------|
G|---------------------------------------|
D|---------------------------------------|
A|-12p10----10s=9-----9s7----7s5---5s4---|
E|-------12-------10-------9-----7-----5-|

       PM|     PM|      ~~~ PM|       PM|     PM|      ~~~ PM|
   S S S S S S S S S S  Q   S S   S S S S S S S S S S  Q   S S
e|------------------------------|--------------------------------|
B|------------------------------|--------------------------------|
G|------------------------------|--------------------------------|
D|---------------------[5]------|---------------------[7]--------|
A|-7p5-----7p5-----7p5----------|-7p5-----7p5-----7p5------------|
E|-----0-0-----0-0----------0-0-|-----0-0-----0-0----------0-0---|

       PM|     PM|      ~~~ PM|       PM|     PM|      ~~~ PM|
   S S S S S S S S S S  Q   S S   S S S S S S S S S S  Q   S S
e|------------------------------|--------------------------------|
B|------------------------------|--------------------------------|
G|------------------------------|--------------------------------|
D|----------------------5-------|----------------------7---------|
A|-7p5-----7p5-----7p5----------|-7p5-----7p5-----7p5------------|
E|-----0-0-----0-0----------0-0-|-----0-0-----0-0----------0-0---|

[Outro]
       PM|     PM|      ~~~ PM|
   S S S S S S S S S S  Q   S S    S  S  S  S  S  S  S  S  S  S  S  S  S S  E
e|------------------------------|-17p15----15s14----14s12----12s10----10s9----|
B|------------------------------|-------17-------15-------14-------12------10-|
G|------------------------------|---------------------------------------------|
D|---------------------[5]------|---------------------------------------------|
A|-7p5-----7p5-----7p5----------|---------------------------------------------|
E|-----0-0-----0-0----------0-0-|---------------------------------------------|

       PM|     PM|      ~~~ PM|
   S S S S S S S S S S  Q   S S    S  S  S  S  S  S  S  S  S  S  S  S  S S  E
e|--------------------------0-0-|---------------------------------------------|
B|------------------------------|---------------------------------------------|
G|------------------------------|-14p12----12s11----11s=9-----9s=7-----7s6----|
D|----------------------5-------|-------14-------12-------11--------9-------7-|
A|-7p5-----7p5-----7p5----------|---------------------------------------------|
E|-----0-0-----0-0--------------|---------------------------------------------|

[Gtr IV]
   W                               S  S  S  S  S  S  S  S  S  S  S  S  S S  E
e|------------------------------|---------------------------------------------|
B|------------------------------|---------------------------------------------|
G|------------------------------|---------------------------------------------|
D|------------------------------|---------------------------------------------|
A|------------------------------|-12p10----10s=9-----9s=7-----7s=5-----5s4----|
E|------------------------------|-------12-------10--------9--------7-------5-|

   PM--------------------------------|              PM------------------------------|
   S   S  S  S  S   S  S  S  S  S  S  S  S  S  E    S  S  S  S  S  S  S  S  S  S  S  S  S  S  E
e|------------------------------------------------|----------------------------------------------|
B|------------------------------------------------|----------------------------------------------|
G|------------------------------------------------|----------------------------------------------|
D|---------------------------------------------12-|-------------------------------------------12-|
A|--------------12-----12----13----12----13h14----|-------------12----12----13----12----13h14----|
E|-12--15-12-15-----15----15----15----15----------|-12-15-12-15----15----15----15----15----------|

    ~~~
    +Q            H.                                  W
e|------------------------------------------------|----------------------------------------------|
B|------------------------------------------------|----------------------------------------------|
G|------------------------------------------------|----------------------------------------------|
D|-(7)--------------------------------------------|----------------------------------------------|
A|------------------------------------------------|----------------------------------------------|
E|------------------------------------------------|----------------------------------------------|

   PM------------------------------|              PM------------------|
   S  S  S  S  S  S  S  S  S  S  S  S  S  S  E    S  S  S  S  S  S  S  S  S  S  S  S  +Q
e|----------------------------------------------|----------------------------------------------|
B|----------------------------------------------|----------------------------------------------|
G|----------------------------------------------|----------------------------------------------|
D|-------------------------------------------12-|----------------------------------------------|
A|-------------12----12----13----12----13h14----|-------------12----12----13-12-10-------------|
E|-12-15-12-15----15----15----15----15----------|-12-15-12-15----15----15----------12-(12)\----|

    W                                              H                       S  S  S  S  +Q
e|----------------------------------------------|----------------------------------------------|
B|----------------------------------------------|----------------------------------------------|
G|----------------------------------------------|----------------------------------------------|
D|----------------------------------------------|----------------------------------------------|
A|----------------------------------------------|-------------------------13-12-10-------------|
E|----------------------------------------------|----------------------------------12-(12)\----|

[Chorus 3]
  E5      A5
  Gtrs I, II
  PM--------------------|
  S S S S S S S S S S S S S S E
e|-------------------------------|
B|-------------------------------|
G|-------------------------------|
D|---------2---2---------------0-|
A|-2---2---0---0---1---0---1h2---|
E|-0-3-0-3---3---3---3---3-------|

  E5      A5                      E5      A5
  PM--------------------|         PM--------------------|
  S S S S S S S S S S S S S S E   S S S S S S S S S S S S S S E
e|-------------------------------|-------------------------------|
B|-------------------------------|-------------------------------|
G|-------------------------------|-------------------------------|
D|---------2---2---------------0-|---------2---2---------------0-|
A|-2---2---0---0---1---0---1h2---|-2---2---0---0---1---0---1h2---|
E|-0-3-0-3---3---3---3---3-------|-0-3-0-3---3---3---3---3-------|

  E5      A5            E5     E5      A5
  PM------------|              PM--------------------|
  S S S S S S S S S S S S Q    S S S S S S S S S S S S S S E
e|----------------------------|-------------------------------|
B|----------------------------|-------------------------------|
G|----------------------------|-------------------------------|
D|---------2---2--------------|---------2---2---------------0-|
A|-2---2---0---0---1-0---2----|-2---2---0---0---1---0---1h2---|
E|-0-3-0-3---3---3-----3-0----|-0-3-0-3---3---3---3---3-------|

  E5      A5
  PM--------------------|
  S S S S S S S S S S S S S S E
e|--------------------------------|
B|--------------------------------|
G|--------------------------------|
D|---------2---2---------------0--|
A|-2---2---0---0---1---0---1h2----|
E|-0-3-0-3---3---3---3---3--------|

  E5      A5                      E5      A5            E5
  PM--------------------|         PM------------|
  S S S S S S S S S S S S S S E   S S S S S S S S S S S S Q
e|-------------------------------|----------------------------|
B|-------------------------------|----------------------------|
G|-------------------------------|----------------------------|
D|---------2---2---------------0-|---------2---2--------------|
A|-2---2---0---0---1---0---1h2---|-2---2---0---0---1-0---2----|
E|-0-3-0-3---3---3---3---3-------|-0-3-0-3---3---3-----3-0----|

                                                D.S. al Coda
  E5      A5                      E5      A5            E5
  PM--------------------|         PM------------|
  S S S S S S S S S S S S S S E   S S S S S S S S S S S S Q
e|-------------------------------|----------------------------|
B|-------------------------------|----------------------------|
G|-------------------------------|----------------------------|
D|---------2---2---------------0-|---------2---2--------------|
A|-2---2---0---0---1---0---1h2---|-2---2---0---0---1-0---2----|
E|-0-3-0-3---3---3---3---3-------|-0-3-0-3---3---3-----3-0----|

   &
   Gtrs I, II
    S  S  S  S  S  S  S  S  S  S  S  S  S S  E
e|-17p15----15s14----14s12----12s10----10s9----|
B|-------17-------15-------14-------12------10-|
G|---------------------------------------------|
D|---------------------------------------------|
A|---------------------------------------------|
E|---------------------------------------------|

[Gtr III]
    S  S  S  S  S  S  S  S  S  S  S  S  S S  E
e|---------------------------------------------|
B|---------------------------------------------|
G|-14p12----12s11----11s=9-----9s=7-----7s6----|
D|-------14-------12-------11--------9-------7-|
A|---------------------------------------------|
E|---------------------------------------------|

[Gtr IV]
   S  S  S  S  S  S  S  S  S  S  S  S  S S  E
e|---------------------------------------------|
B|---------------------------------------------|
G|---------------------------------------------|
D|---------------------------------------------|
A|-12p10----10s=9-----9s=7-----7s=5-----5s4----|
E|-------12-------10--------9--------7-------5-|

                              E5
  5/4
                  |-3-|
   S S S S S S Q  S S S S S S E E.
e|---------------------------------*|
B|---------------------------------*|
G|---------------------------------*|
D|----------------------------2----*|
A|----------------0h1p0-------2----*|
E|-0-0-0-0---0----------3---3-0----*|

                  |-3-|
   S S S S S S Q  S S S S S S E E.
e|---------------------------------*|
B|---------------------------------*|
G|---------------------------------*|
D|----------------------------2----*|
A|----------------0h1p0-------2----*|
E|-7-0-0-0---0----------3---3-0----*|

************************************

| W - whole; H - half; Q - quarter; E - 8th; S - 16th; T - 32nd; X - 64th; a - acciaccatura
| + - note tied to previous; . - note dotted; .. - note double dotted
| Uncapitalized letters represent notes that are staccato (1/2 duration)
| Irregular groupings are notated above the duration line
| Duration letters will always appear directly above the note/fret number it represents the
| duration for.  Duration letters with no fret number below them represent rests.  Multi-
| bar rests are notated in the form Wxn, where n is the number of bars to rest for.  Low
| melody durations appear below the staff
| (n)  Ghost note
| h    Hammer-on
| p    Pull-off
| b    Bend
| pb   Pre-bend
| /    Slide up
| s    Slap 

************************************

7. Ain’t Talkin’ ‘Bout Love by Van Halen

Ain't Talkin Bout Love

Anything by Van Halen is gonna be a good choice if you want to show off your guitar playing skills. This song in particular though will blow people’s minds.

It is likely that everyone will have heard this song and is such a fun song that your audience might even start singing the lyrics while you’re playing the song. The song sounds impressive and will look impressive to anyone. Plus, it’ll liven up the party a little bit.

Tab:

[Intro]
 PM----------------------|
e|----------0-1-----3----------------|
B|------1-------1-----3--------------|
G|--------2-------2------------------|
D|----2------------------------------|
A|--0---------------------3~----2-3--|
E|----------------------3------------|
                                          x2
 PM----------------------|
e|----------0-1-----3----------------|
B|------1-------1-1---3--------------|
G|--------2-------2------------------|
D|----2------------------------------|
A|--0---------------------3~----2-3--|
E|----------------------3------------|

  (with ~310ms slap-back delay
e|-------------------------------------------------------w---w---w---|
B|--1-----1-----0-------------------1-----1-----0-----1-1/3-3/5-5^8--|
G|--2-----2-----0-------------------2-----2-----0--------------------|
D|--2-----2-----0-------------------2-----2-----0--------------------|
A|--0-----0---------------3~----2-3-0-----0--------------------------|
E|----------------------0--------------------------------------------|

e|----------------------------------0----------------------------|
B|--1-----1-----0-------------------1-----1-----0----------w-w---|
G|--2-2-2-2-----0-------------------2-----2-----0-----8b9--9-9\--|
D|--2-2-2-2-----0-------------------2-----2-----0----------------|
A|--0-0-0-0---------------3~----2-3-0-----0----------------------|
E|------------0---------0----------------------------------------|

[Verse]
e|----------1---3--------------------|
B|------1-------3--------------------|
G|--------2-----0--------------------|
D|----2------------------------------|
A|--0---------------------3~----2-3--|
E|----------------------3------------|

I heard the news baby, all about your disease.
                       Yeah you may have all you
want, baby.  But I got something you need.
(pick slide)
Oh yeah !

[Chorus]
e|-------------------------------------------------------------------|
B|--1-----1-----0-------------------1-----1-----0--------------------|
G|--2-----2-----0-------------------2-----2-----0--------------------|
D|--2-----2-----0-------------------2-----2-----0--------------------|
A|--0-----0---------------3~----2-3-0-----0---------------3~----2-3--|
E|------------0---------0-------------------------------0------------|
Ain't talkin' 'bout love.  My love is rotten to the core.
Ain't talkin' 'bout love.  Just like I told you before.

[Verse 2]
e|----------1---3--------------------|
B|------1-------3--------------------|
G|--------2-----0--------------------|
D|----2------------------------------|
A|--0---------------------3~----2-3--|
E|----------------------3------------|
You know you're semi-good lookin'.  And on the streets again.
You think you're really cooki'n baby.  You better find yourself a friend
(pick slide)
my friend.

[Chorus]
e|-------------------------------------------------------------------|
B|--1-----1-----0-------------------1-----1-----0--------------------|
G|--2-----2-----0-------------------2-----2-----0--------------------|
D|--2-----2-----0-------------------2-----2-----0--------------------|
A|--0-----0---------------3~----2-3-0-----0---------------3~----2-3--|
E|------------0---------0-------------------------------0------------|
Ain't talkin' 'bout love.  My love is rotten to the core.
Ain't talkin' 'bout love.  Just like I told you before.

(incl. following lick)
e|----------w-w--w-w---|
B|--7(b)8---8-8-b9-10--|
G|---------------------|
D|---------------------|
A|---------------------|
E|---------------------|

[Solo]
       let open e ring
e|-------0----0----------------------0----------------------------------0--|
B|------10---10--10-12~-------------10---12N-12N-12N-13N-13N-13N-*12\-8----|
G|-9-12------------------------9-12----------------------------------------|
D|-------------------------------------------------------------------------|
A|-------------------------------------------------------------------------|
E|-------------------------------------------------------------------------|

e|-------0----0--------0--------------------------------------------|
B|------10---12--13---15---13--15/17--17/20---17^20^17--17^20^17----|
G|-9-12---------------------------------------------------------20--|
D|------------------------------------------------------------------|
A|------------------------------------------------------------------|
E|------------------------------------------------------------------|

e|--------------------------------------------------|
B|--17^20^17--17^20^17--17--------------------------|
G|----------20--------20--19b21-19--0---------------|
D|--------------------------------------------------|
A|--------------------------------------------------|
E|--------------------------------------------------|
                                    (whammy dive)

[Chorus]
e|-------------------------------------------------------------------|
B|--1-----1-----0-------------------1-----1-----0--------------------|
G|--2-----2-----0-------------------2-----2-----0--------------------|
D|--2-----2-----0-------------------2-----2-----0--------------------|
A|--0-----0---------------3~----2-3-0-----0---------------3~----2-3--|
E|------------0---------0-------------------------------0------------|
Ain't talkin' 'bout love.  My love is rotten to the core.
Ain't talkin' 'bout love.  Just like I told you before.

[Bridge]
  (clean sound)
e|-----------1---3---------------------|
B|------1------1---3-------------------|
G|--------2----------0-----------------|
D|----2--------------------------------|
A|--0------------------------3~----2-3-|
E|-------------------------3-----------|
  I've been to the edge.  There I stood and looked
  down.  You know I lost a lot of 
  friends there baby.  I got no time to mess
  around.  So if you want it, got to

e|------------------------------------------------------------|
B|--X--X---------------------X--X-----------------------------|
G|--X--X----------------------X--X-------------------------0--|
D|--X--X-------------------------X--X-------------------------|
A|--X--X----------------------------X--X----------------------|
E|--X--X----------------------------X--X----------------------|
  bleed for it baby. gotta gotta bleed baby.      mmm you gotta gotta

e|--------------------------------------------------|
B|--X--X----------------------X--X------------------|
G|--X--X----------------------X--X------------------|
D|--X--X-------------------------X--X---------------|
A|--X--X----------------------------X--X------------|
E|--X--X----------------------------X--X------------|
  bleed baby  hey  gotta gotta  bleed baby

e|-------------------------------------------------------w---w---w---|
B|--1-----1-----0-------------------1-----1-----0-----1-1/3-3/5-5^8--|
G|--2-----2-----0-------------------2-----2-----0--------------------|
D|--2-----2-----0-------------------2-----2-----0--------------------|
A|--0-----0---------------3~----2-3-0-----0--------------------------|
E|----------------------0--------------------------------------------|
Ain't talkin' 'bout love.   My love is rotten to the core.

e|----------------------------------0--------------------------------|
B|--1-----1-----0-------------------1-----------0--------------------|
G|--2-2-2-2-----0-------------------2-----2-----0--------------------|
D|--2-2-2-2-----0-------------------2-0-2-------0--------------------|
A|--0-0-0-0---------------3~----2-3-0---------------------3~----2-3--|
E|------------0---------0-------------------0-0--------0-------------|
Ain't talkin' 'bout love.  Just like I told you before, before, before
Ain't talkin' 'bout love, don't wanna talk about love.

e|--17-17-17-17-17-17-17\-|
B|------------------------|
G|------------------------|
D|------------------------|
A|------------------------|
E|------------------------|
Don't make me talk about love.
Ain't gonna talk about love.

(Solo)
e|-------------------------------------------------------------------|
B|--1-----1-----0-------------------1-----1-----0--------------------|
G|--2-----2-----0-------------------2-----2-----0--------------------|
D|--2-----2-----0-------------------2-----2-----0--------------------|
A|--0-----0---------------3~----2-3-0-----0---------------3~----2-3--|
E|------------0---------0-------------------------------0------------|
                   Hey ! Hey ! Hey !               Hey ! Hey ! Hey !

e|-------------------------------------------------------------------|
B|--1-----1-----0----w---w----w-----1-----1-----0--------------------|
G|--2-----2-----0----5--/8--/10\----2-----2-----0--------------------|
D|--2-----2-----0-------------------2-----2-----0--------------------|
A|--0-----0-------------------------0-----0---------------3~----2-3--|
E|------------0-----------------------------------------0------------|
                   Hey ! Hey ! Hey !               Hey ! Hey ! Hey !

e|--------------------------------|
B|--1-----1-----0-----------------|
G|--2-----2-----0------5---5---5--|  (4 times)
D|--2-----2-----0------5---5---5--|
A|--0-----0------------3---3---3--|
E|------------0-------------------|
                     Hey ! Hey ! Hey!

e|-------------------------------------------0----------------------------------|
B|----------5----------------1---------------1------------------------1-------8-|
G|--2---4---5----------------2---4-----------2---4---5----------------2---4---7-|
D|--2---4---5----------------2---4/----------2---4---5----------------2---4---9-|
A|--0---2---3-----------3-2--0---2-----------0---2---3-----------3-2--0---2---7-|
E|------------/12\--0^3-------------0------------------/12\--0^3----------------|
                                     (dive)

e|----------7\-|
B|----------7\-|
G|----------7\-|
D|----------6\-|
A|----------7\-|
E|--0----------|
     (dive)


************************************

| /   slide 
| ^   hammer/pull
| w   quickly hit the whammy bar
| b   bend
| X   noise
| ~   vibrato
| < > natural harmonic

************************************

6. Crazy Train by Ozzy Osbourne

Crazy Train

It is likely that every single person you know has heard this song at some point in their life. Everyone at the party will immediately pay attention to your playing if you play the intro to this song because everyone has heard it before. Everyone will try to mimic Ozzy’s “Ai Ai Ai Ai” at the beginning of the song and the whole party will liven up.

You will be able to show off with the well known intro to the song, you will be able to show off with the moderately fast verse riffs, and you will melt faces with the signature Randy Rhoads guitar solo. You will impress people who do not play guitar and (as shown by the 957 ratings of the guitar tab on UltimateGuitar.com) you will impress people who do play guitar.

Tab:

CRAZY TRAIN by Ozzy Osbourne 
tabbed by isthatmycow (aka Will Fuller)

regular tuning(low to high E)
T=finger tap
>=pick scrape
h=hammer
p=pull down
/=slide
b=bend 
~=let ring
BH=bend headstock or whammy bar
intro begins with bass
|-------------------------------------------------------20~
|-------------------------------------------------------17~
|----------------------------------------------------------
|----------------------------------------------------------
|-------0-0-------------5-5-------------0-0-------------5-5
|-2-2--------0-0--2-2--------0-0--2-2--------0-0--2-2------
                        lead comes in w/heavy distortion^

|-------
|-------
|-------
|-------
|-------
|--0-0--

lead (from where it comes in at the intro)
|-20~------------------------------------------------------
|-17~------------------------------------------------------
|----------------------------------------------------------
|----->----------------------------------------------------
|----->----------4---5---4---2-0---0-2-0---------4---5---4-
|----->------2-2---2---2---2-----4-------4-0-2-2---2---2---
 > = pick scrape

|----------------------------------------------------------
|----------------------------------------------------------
|----------------------------------------------------------
|----------------------------------------------------------
|---2-0---0-2-0---------4---5---4---2-0---0-2-0---------4--
|-2-----4-------4-0-2-2---2---2---2-----4-------4-0-2-2---2

|-----------------0-------
|-----------------0-------
|---------7-------9-------
|---------7-------9-------
|-5---4---5-------7-------
|---2---2-----------------

RHYTHM
|------------------------------0---------------------------
|------2-------5-------3-------2----------------2-------5--
|------2-------4-------2-------2------2---------2-------4--
|------2-------6-------4-------2------2---------2-------6--
|--0-0---0-0-0---0-0-0---0-0-0--------0--0--0-0---0-0-0---0
|---------------------------------3/4----------------------
                  
|-------------0---------------------
|-----3-------2---------------------
|-----2-------2---4p2p0-------------
|-----4-------2--------h4p2p0-------
|-0-0---0-0-0----------------h4p2p0-
|-----------------------------------
                  ~~~~~*sploof*~~~~

VERSES - rhythm without the sploof

PRECHORUS - (mental wounds not healing,ect.)
|----------------------------------------------------------
|----------------------7-7b1/2---------------3~------------
|---------------7~---7-----------------------2~------------
|---------------7~---------------------------0~-----0-0----
|-4---4--4-4----5~-------------4---4--4-4----0~---------4-2
|-2-0-2--2-2-0-----------------2-0-2--2-2-0----------------

CHORUS
|-----------------------------
|-----------------------------
|--2~-------------------------
|--2~--------------2~---------  ~fill~
|--0~--------------2~---------
|--------------4-2-0~-----4---
 goin    off   the rails 
~fill 1~
|--------2--------------------------------------------------
|------2---5p2-3p2---2--------------------------------------
|--4b6------------5---5p4p2---2-----------------------------
|----------------------------4---4-2---2--------------------
|------------------------------------4---4-3p2-3p2-3p2-3p2p0
|-----------------------------------------------------------

~fill 2~
|-5---9p5---10p6---11p7---11p8---12p9----13p10----14p11----
|---7-----7------8------9------9------10-------11-------12-
|----------------------------------------------------------
|----------------------------------------------------------
|----------------------------------------------------------
|----------------------------------------------------------

|-15p12----16p13----17p14----18p15--
|-------13-------14-------15--------
|-----------------------------------
|-----------------------------------
|-----------------------------------
|-----------------------------------

~fill 3~
|--------------------------------------------16------------
|-----------14-17p14-------15-18p15-------16----19p16------
|--16-16b18----------17b19----------18b20-------------19b21
|----------------------------------------------------------
|----------------------------------------------------------
|----------------------------------------------------------

|-------17----------------18-------------
|----17----20p17-------18----21p18-------
|-19-------------20b22-------------------
|----------------------------------------
|----------------------------------------
|-----------------------------------17/--

BRIDGE - (I know that things are goin wrong for me,ect.)
|--------------------------------------0-------------------
|--------------------------------------0-------------------
|--------2---------------------7-----9-9-----11-11-11/----2
|-4~/----2-----2----4-4-4~/----7-----9-9-----11-11-11/----2
|-4~/----0-----2----4-4-4~/----5-----7-7------9--9--9/----0
|-2~/-------4--0--0-2-2-2~/--------------------------------

|----------------------------0--
|----------------------------0--
|-------------11/----7-----9-9--
|-----2-------11/----7-----9-9--
|-0---2--------9/----5-----7-7--
|---4-0---0-0-------------------

SOLO(Randy Rhoads - the man)  
  T         T    T          T    T           T     T
|----------------------------------------------------------
|-14p7h10p7-14p7-14p10p7h10-14p7-14p10p7h10--14p10h14p10p7-
|----------------------------------------------------------
|----------------------------------------------------------
|----------------------------------------------------------
|----------------------------------------------------------
     T    T             T          T    T            T
|----------------------------------------------------------
|h10-15p7-15p7h10p7h10--15p10p7h10-15p7-15p7h10p7h10-15p10-
|----------------------------------------------------------
|----------------------------------------------------------
|----------------------------------------------------------
|----------------------------------------------------------
             T     T     T     T     T     T     T
|----------------------------------------------------------
|----------------------------------------------------------
|-11b13^V^V~-14p11h14p11h14p11h14p11h14p11h14p11h14-12p11--
|----------------------------------------------------------
|----------------------------------------------------------
|----------------------------------------------------------
  *bend 11 back and forth while tapping 14

|------------------17-16-14-------14-16-17-17b19--14h17p14-
|--------10-----------------17b19--------------------------
|-9-9b11----9b11-------------------------------------------
|----------------------------------------------------------
|----------------------------------------------------------
|----------------------------------------------------------

|----14----------------------------------------------------
|-17----17p15p14-15p14----14----------------17-17BH16BH17--
|----------------------16----16p14-16b18-16----------------
|----------------------------------------------------------
|----------------------------------------------------------
|----------------------------------------------------------

|-------------14h17p14h17p14h17p14h17p14h17p14h18p15h18p15-
|-------14h17----------------------------------------------
|-14h16----------------------------------------------------
|----------------------------------------------------------
|----------------------------------------------------------
|----------------------------------------------------------

|-18p16h20p17h21p17h21p17h21p17h21p17h21p17h21p17h21p17-19-
|----------------------------------------------------------
|----------------------------------------------------------
|----------------------------------------------------------
|----------------------------------------------------------
|----------------------------------------------------------

|p17p16p14-16h19p16h19p16-19p16h19p16h19p16h19p16-14\15-14-
|----------------------------------------------------------
|----------------------------------------------------------
|----------------------------------------------------------
|----------------------------------------------------------
|----------------------------------------------------------

|----------17----------------------------------------------
|-17-17b19----17b19b17--15-14------------------------------
|-----------------------------16-14----------14----------14
|-----------------------------------16p14h16----16p14h16---
|----------------------------------------------------------
|----------------------------------------------------------

|----------------------------------------------------------
|----------------------------------------------------------
|----------14----------13h14p13h14-13h14p13\14----16-------
|-16p14h16----16p14h16-------------------------16----------
|----------------------------------------------------------
|----------------------------------------------------------

|-------------------------------------------------------14-
|-------------------------------------------------14h17----
|----------------------------------------13h14h16----------
|----------------------11h12h14-13h14h15-------------------
|-------------12h14h16-------------------------------------
|-11\12h14h16----------------------------------------------

|-----17h19-19b21-b21-19b21b19--
|-\19---------------------------
|-------------------------------
|-------------------------------
|-------------------------------
|-------------------------------

OUTRO
|----------------------------------------0-----------------
|----------------------------------------0-----------------
|----------2----------------------7------9-----------------
|-4/-------2-----2--------4-------7------9-------4-4/------
|-4/-------0-----2--------4-------5------7-------4-4/------
|-2/----------2--0---4-0--2---0-------0------4-0-2-2/----0-

|-----------------------------------0----------------------
|-----------------------------------0----------------------
|--2------------------------7-------9---------11-11-----2--
|--2-------2--------4-------7-------9---------11-11-----2--
|--0-------2--------4-------5-------7----------9--9-----0--
|------4-2-0---4p0--2---0-------0-------4p0----------------

|-----0----------------
|-----0----------------
|-----1--------11-11/-- ~fade out~
|-----2--------11-11/--
|-0---2---------9--9/--
|---4-0---4-0----------

5. Through the Fire and Flames by Dragonforce

Through the Fire and Flames

This one is a no brainer. While the song is almost impossible to play perfectly to the original audio considering the audio is supposedly sped up, no one will know that.

The song will sound extremely impressive and everyone will say “Dude! He’s playing that song you play during the credits in Guitar Hero 3!” and everyone will think you are a real Guitar Hero.

Tab:

Tabbed By lDragon-Slayerl
 
[Lead Guitar 1]
    W                    S  S  S  S S S  S  S  S  S S S  S  S S S
e|-------------------|--11-11-11-11-8-8-11-11-11-11-8-8-11-11-8-8-|
B|-------------------|--------------------------------------------|
G|-------------------|--------------------------------------------|
D|-------------------|--------------------------------------------|
A|-------------------|--------------------------------------------|
E|-------------------|--------------------------------------------|

     S  S  S  S S S  S  S  S  S S S  S  S S S
e|--11-11-11-11-8-8-11-11-11-11-8-8-11-11-8-8-|
B|--------------------------------------------|
G|--------------------------------------------|
D|--------------------------------------------|
A|--------------------------------------------|
E|--------------------------------------------|

     S  S  S  S  S  S  S  S  S  S  S  S  S  S  S  S
e|--15-15-15-15-11-11-15-15-15-15-11-11-15-15-11-11-|
B|--------------------------------------------------|
G|--------------------------------------------------|
D|--------------------------------------------------|
A|--------------------------------------------------|
E|--------------------------------------------------|

     S  S  S  S  S  S  S  S  S  S  S  S  S  S  S  S
e|--15-15-15-15-11-11-15-15-15-15-11-11-15-15-11-11-|
B|--------------------------------------------------|
G|--------------------------------------------------|
D|--------------------------------------------------|
A|--------------------------------------------------|
E|--------------------------------------------------|

     S  S  S  S S S  S  S  S  S S S  S  S S S
e|--13-13-13-13-8-8-13-13-13-13-8-8-13-13-8-8-|
B|--------------------------------------------|
G|--------------------------------------------|
D|--------------------------------------------|
A|--------------------------------------------|
E|--------------------------------------------|

     S  S  S  S S S  S  S  S  S S S  S  S S S
e|--13-13-13-13-8-8-13-13-13-13-8-8-13-13-8-8-|
B|--------------------------------------------|
G|--------------------------------------------|
D|--------------------------------------------|
A|--------------------------------------------|
E|--------------------------------------------|

     S  S  S  S S S  S  S  S  S S S  S  S S S
e|--11-11-11-11-8-8-11-11-11-11-8-8-11-11-8-8-|
B|--------------------------------------------|
G|--------------------------------------------|
D|--------------------------------------------|
A|--------------------------------------------|
E|--------------------------------------------|

    S  S  S  S  S  S  S  S   E    E    Q
e|--8-10-11-13-10-11-13-15-/11--/13--/15~----|
B|-------------------------------------------|
G|-------------------------------------------|
D|-------------------------------------------|
A|-------------------------------------------|
E|-------------------------------------------|

     S  S  S  S S S  S  S  S  S S S  S  S S S
e|--11-11-11-11-8-8-11-11-11-11-8-8-11-11-8-8-|
B|--------------------------------------------|
G|--------------------------------------------|
D|--------------------------------------------|
A|--------------------------------------------|
E|--------------------------------------------|

     S  S  S  S S S  S  S  S  S S S  S  S S S
e|--11-11-11-11-8-8-11-11-11-11-8-8-11-11-8-8-|
B|--------------------------------------------|
G|--------------------------------------------|
D|--------------------------------------------|
A|--------------------------------------------|
E|--------------------------------------------|

     S  S  S  S  S  S  S  S  S  S  S  S  S  S  S  S
e|--15-15-15-15-11-11-15-15-15-15-11-11-15-15-11-11-|
B|--------------------------------------------------|
G|--------------------------------------------------|
D|--------------------------------------------------|
A|--------------------------------------------------|
E|--------------------------------------------------|

     S  S  S  S  S  S  S  S  S  S  S  S  S  S  S  S
e|--15-15-15-15-11-11-15-15-15-15-11-11-15-15-11-11-|
B|--------------------------------------------------|
G|--------------------------------------------------|
D|--------------------------------------------------|
A|--------------------------------------------------|
E|--------------------------------------------------|

     S  S  S  S S S  S  S  S  S S S  S  S S S
e|--13-13-13-13-8-8-13-13-13-13-8-8-13-13-8-8-|
B|--------------------------------------------|
G|--------------------------------------------|
D|--------------------------------------------|
A|--------------------------------------------|
E|--------------------------------------------|

     S  S  S  S S S  S  S  S  S S S  S  S S S
e|--13-13-13-13-8-8-13-13-13-13-8-8-13-13-8-8-|
B|--------------------------------------------|
G|--------------------------------------------|
D|--------------------------------------------|
A|--------------------------------------------|
E|--------------------------------------------|

                                                  /1
     S  S S S S S  S S   S  S S S S S  S S        W
e|--11p-8------------8--11p-8------------8-|--(16)----------------|
B|--------9---8-9-11----------9---8-9-11---|------------------------|
G|----------8-------------------8----------|------------------------|
D|-----------------------------------------|------------------------|
A|-----------------------------------------|------------------------|
E|-----------------------------------------|------------------------|

    E  E  E  E  E  E  E  E     E  E  E  E  E  E  E  E
e|--------------------------|--------------------------|
B|--9--------8--------6-----|--9--------8--------6-----|
G|-----5--5-----5--5-----5--|-----5--5-----5--5-----5--|
D|--------------------------|--------------------------|
A|--------------------------|--------------------------|
E|--------------------------|--------------------------|

     T    T    T    T    T    T    T    T
     S S  S S  S S  S S  S S  S S  S S  S S
e|--11-8-11-8-11-8-11-8-11-8-11-8-11-8-11-8-|
B|------------------------------------------|
G|------------------------------------------|
D|------------------------------------------|
A|------------------------------------------|
E|------------------------------------------|

     T    T    T    T    T    T    T    T
     S S  S S  S S  S S  S S  S S  S S  S S    E  E  E  E  E  E  E  E
e|--11-8-11-8-11-8-11-8-11-8-11-8-11-8-11-8-|--------------------------|
B|------------------------------------------|--9--------8--------6-----|
G|------------------------------------------|-----8--8-----8--8-----8--|
D|------------------------------------------|--------------------------|
A|------------------------------------------|--------------------------|
E|------------------------------------------|--------------------------|

    E  E  E  E  E  E  E  E      W
e|--------------------------|--------------------|
B|--9--------8--------6-----|--11----------------|
G|-----8--8-----8--8-----8--|--------------------|
D|--------------------------|--------------------|
A|--------------------------|--------------------|
E|--------------------------|--------------------|

    E    E    E    E    E    E    E    E     W
e|--8S--10S--11S--13S--15S--16S--18S--23--|-------------------|
B|----------------------------------------|-------------------|
G|----------------------------------------|-------------------|
D|----------------------------------------|-------------------|
A|----------------------------------------|-------------------|
E|----------------------------------------|-------------------|

    W                   E  E  E  E  E  E  E  E      W
e|-------------------|--------------------------|--------------------|
B|-------------------|--8--------6--------8-----|--11----------------|
G|-------------------|-----8--8-----8--8-----8--|--------------------|
D|-------------------|--------------------------|--------------------|
A|-------------------|--------------------------|--------------------|
E|-------------------|--------------------------|--------------------|

    S S S S S S S S S S S S S S S S    S S S S S S S S S S S S S S S S
e|----------6-6-8-8---------6-6-8-8-|----------6-6-8-8---------6-6-8-8-|
B|--6-6-9-9---------6-6-9-9---------|--6-6-9-9---------6-6-9-9---------|
G|----------------------------------|----------------------------------|
D|----------------------------------|----------------------------------|
A|----------------------------------|----------------------------------|
E|----------------------------------|----------------------------------|

    W                      W                    W
e|--6----------------|-----------------------|-------------------|
B|-------------------|-----------------------|-------------------|
G|-------------------|--10b----------------|-------------------|
D|-------------------|-----------------------|-------------------|
A|-------------------|-----------------------|-------------------|
E|-------------------|-----------------------|-------------------|

                                                            PM PM
    W                   E  Q    E  E  E  E  E     E  Q    E  E  E    Q
e|-------------------|-------------------------|-------------------6----|
B|-------------------|--8--8----6--8--6--------|--8--8-------6--8---------|
G|-------------------|-------------------8--5--|----------8---------------|
D|-------------------|-------------------------|--------------------------|
A|-------------------|-------------------------|--------------------------|
E|-------------------|-------------------------|--------------------------|

    E  Q    S S S S S S S S S S    E  E   E     H         E
e|----------------------6-6-----|--6--8--10--11~--------L--|
B|--8--8----6-6-8-8-9-9-----8-8-|----------------------------|
G|------------------------------|----------------------------|
D|------------------------------|----------------------------|
A|------------------------------|----------------------------|
E|------------------------------|----------------------------|

      E  E  E    Q    E  E   E         E   E   E   E  E    E   S   S  E
e|--6------------------6--11--|--/15--11--15--16-----/18--16p-15-----|
B|-------8----------------------|------------------------------------16--|
G|----------8--8----8---------|----------------------------------------|
D|------------------------------|----------------------------------------|
A|------------------------------|----------------------------------------|
E|------------------------------|----------------------------------------|

      E   E    E    E   E   E   E    E
e|--/23--23s--18S--23--23--18--23s--18--|
B|--------------------------------------|
G|--------------------------------------|
D|--------------------------------------|
A|--------------------------------------|
E|--------------------------------------|

     T     T     T     T     T     T     T
     S  S  S  S  S  S  S  S  S  S  S  S  S  S   E
e|--18-16-18-16-18-16-18-16-18-15-20-16-18-15s-11--|
B|-------------------------------------------------|
G|-------------------------------------------------|
D|-------------------------------------------------|
A|-------------------------------------------------|
E|-------------------------------------------------|

    E  Q    S S S S S S S S S S    E  Q    E   E   E    Q
e|------------------------------|----------------------------|
B|--8--8----6-6-8-8-6-6---------|--8--8----6--/8--/9--/11----|
G|----------------------8-8-5-5-|----------------------------|
D|------------------------------|----------------------------|
A|------------------------------|----------------------------|
E|------------------------------|----------------------------|

     T    T    T   T   T   T   T   T
     S S  S S  S S S S S S S S S S S S     E  E   E     H         E
e|--11-6-11-6-11-6-8-4-8-4-8-4-6-4-6-4-|--/6--8--10--11~--------L--|
B|-------------------------------------|-----------------------------|
G|-------------------------------------|-----------------------------|
D|-------------------------------------|-----------------------------|
A|-------------------------------------|-----------------------------|
E|-------------------------------------|-----------------------------|

    E  Q    S S E  E  E  E     E  Q    S S E   E     Q
e|--6--6--------6-----------|--6--6--------6--11--11----|
B|----------8-9----9--8-----|----------8-9----------------|
G|-----------------------8--|-----------------------------|
D|--------------------------|-----------------------------|
A|--------------------------|-----------------------------|
E|--------------------------|-----------------------------|

     T     T     T     T     T     T     T     T
     S  S  S  S  S  S  S  S  S  S  S  S  S  S  S  S
e|--23-18-23-18-23-18-23-16-23-18-23-16-23-18-23-18-|
B|--------------------------------------------------|
G|--------------------------------------------------|
D|--------------------------------------------------|
A|--------------------------------------------------|
E|--------------------------------------------------|

      E   S  S   Q      E.    E.    E        Q.      H        E
e|--/16--16-16-/18----/16---/15---/10--|--15~------------------|
B|-------------------------------------|-------------------------|
G|-------------------------------------|-------------------------|
D|-------------------------------------|-------------------------|
A|-------------------------------------|-------------------------|
E|-------------------------------------|-------------------------|

    W                   E  E  E  E  E  E  E  E     E  E  E  E  E  E  E  E
e|-------------------|--------------------------|--------------------------|
B|-------------------|--9--------8--------6-----|--9--------8--------6-----|
G|-------------------|-----5--5-----5--5-----5--|-----5--5-----5--5-----5--|
D|-------------------|--------------------------|--------------------------|
A|-------------------|--------------------------|--------------------------|
E|-------------------|--------------------------|--------------------------|

     T    T    T    T    T    T    T    T
     S S  S S  S S  S S  S S  S S  S S  S S
e|--11-8-11-8-11-8-11-8-11-8-11-8-11-8-11-8-|
B|------------------------------------------|
G|------------------------------------------|
D|------------------------------------------|
A|------------------------------------------|
E|------------------------------------------|

     T    T    T    T    T    T    T    T
     S S  S S  S S  S S  S S  S S  S S  S S    E  E  E  E  E  E  E  E
e|--11-8-11-8-11-8-11-8-11-8-11-8-11-8-11-8-|--------------------------|
B|------------------------------------------|--9--------8--------6-----|
G|------------------------------------------|-----8--8-----8--8-----8--|
D|------------------------------------------|--------------------------|
A|------------------------------------------|--------------------------|
E|------------------------------------------|--------------------------|

    E  E  E  E  E  E  E  E      W                   W
e|--------------------------|--------------------|-------------------|
B|--9--------8--------6-----|--11----------------|-------------------|
G|-----8--8-----8--8-----8--|--------------------|-------------------|
D|--------------------------|--------------------|-------------------|
A|--------------------------|--------------------|-------------------|
E|--------------------------|--------------------|-------------------|

    W                   W                   E  E  E  E  E  E  E  E
e|-------------------|-------------------|--------------------------|
B|-------------------|-------------------|--8--------6--------8-----|
G|-------------------|-------------------|-----8--8-----8--8-----8--|
D|-------------------|-------------------|--------------------------|
A|-------------------|-------------------|--------------------------|
E|-------------------|-------------------|--------------------------|

    W                   S S S S S S S S S S S S S S S S
e|-------------------|----------6-6-8-8---------6-6-8-8-|
B|-------------------|--6-6-9-9---------6-6-9-9---------|
G|-------------------|----------------------------------|
D|-------------------|----------------------------------|
A|-------------------|----------------------------------|
E|-------------------|----------------------------------|

    S S S S S S S S S S S S S S S S    W                   W
e|----------6-6-8-8---------6-6-8-8-|--6----------------|-------------------|
B|--6-6-9-9---------6-6-9-9---------|-------------------|-------------------|
G|----------------------------------|-------------------|-------------------|
D|----------------------------------|-------------------|-------------------|
A|----------------------------------|-------------------|-------------------|
E|----------------------------------|-------------------|-------------------|

    W                   W                   E  Q    E  E  E  E  E
e|-------------------|-------------------|-------------------------|
B|-------------------|-------------------|--8--8----6--8--6--------|
G|-------------------|-------------------|-------------------8--5--|
D|-------------------|-------------------|-------------------------|
A|-------------------|-------------------|-------------------------|
E|-------------------|-------------------|-------------------------|

               PM PM
    E  Q    E  E  E    Q        E   E  E   E   E   E   E   E
e|-------------------6----|--11--11--L--10--11--13--15--11--|
B|--8--8-------6--8---------|---------------------------------|
G|----------8---------------|---------------------------------|
D|--------------------------|---------------------------------|
A|--------------------------|---------------------------------|
E|--------------------------|---------------------------------|

     E   E   E   E  H             E  E  E    Q    E  E   E
e|--15--13--11--13--L--------|--6------------------6--11--|
B|---------------------------|-------8----------------------|
G|---------------------------|----------8--8----8---------|
D|---------------------------|------------------------------|
A|---------------------------|------------------------------|
E|---------------------------|------------------------------|

        E   E   E   E  E    E   S   S  E      E   E  E   E   E  E  E  E
e|--/15--11--15--16-----/18--16p-15-----|--11--11--6--11--11--6--------|
B|------------------------------------16--|------------------------9--8--|
G|----------------------------------------|------------------------------|
D|----------------------------------------|------------------------------|
A|----------------------------------------|------------------------------|
E|----------------------------------------|------------------------------|

    E  E    E  E  H           E  E  E  E  E  E  E  E
e|--6----------------------|--------------------------|
B|-----8-------6--L--------|-----6--8--6--8--6--------|
G|--------8--------------|--------------------8--5--|
D|-------------------------|--------------------------|
A|-------------------------|--------------------------|
E|-------------------------|--------------------------|

                                  T    T    T    T    T    T    T    T
    E  E  E  E  E  E    Q         S S  S S  S S  S S  S S  S S  S S  S S
e|--------------------6~----|--11-6-11-6-11-6--------------------------|
B|-----6--8--6--8--9----------|-----------------13-9-13-9-13-9-11-8-11-8-|
G|----------------------------|------------------------------------------|
D|----------------------------|------------------------------------------|
A|----------------------------|------------------------------------------|
E|----------------------------|------------------------------------------|

     E  E   E     H         E      E   E  E   S  S  E   E   E   E
e|--/6--8--10--11~--------L--|--15--15--L--15-13-15--13----------|
B|-----------------------------|---------------------------16--13--|
G|-----------------------------|-----------------------------------|
D|-----------------------------|-----------------------------------|
A|-----------------------------|-----------------------------------|
E|-----------------------------|-----------------------------------|

     E   E  E   S  S  E   E   Q
e|--15--15--L--13-15-13--15--20----|
B|---------------------------------|
G|---------------------------------|
D|---------------------------------|
A|---------------------------------|
E|---------------------------------|

     S   S  S  S  S   S  S   S  S  S  S   S  S   S  S  S
e|--18p-15----15-16p-13-15p-11----11-15p-11-13p-10----10-|
B|---------16------------------13------------------11----|
G|-------------------------------------------------------|
D|-------------------------------------------------------|
A|-------------------------------------------------------|
E|-------------------------------------------------------|

      E   S  S   Q      E.    E.    E        Q.      H        E
e|--/16--16-16-/18----/16---/15---/10--|--15~------------------|
B|-------------------------------------|-------------------------|
G|-------------------------------------|-------------------------|
D|-------------------------------------|-------------------------|
A|-------------------------------------|-------------------------|
E|-------------------------------------|-------------------------|

    W                   H         H            H        H
e|-------------------|-----------11--------|--10--------8--------|
B|-------------------|---------------------|---------------------|
G|-------------------|---------------------|---------------------|
D|-------------------|---------------------|---------------------|
A|-------------------|---------------------|---------------------|
E|-------------------|---------------------|---------------------|

    H         H            H         H           H         H
e|-----------15--------|--13--------11--------|-----------11--------|
B|---------------------|----------------------|---------------------|
G|---------------------|----------------------|---------------------|
D|---------------------|----------------------|---------------------|
A|---------------------|----------------------|---------------------|
E|---------------------|----------------------|---------------------|

     Q.      Q.      Q       W                   H.           Q
e|--10------11------10----|--8----------------|--L-----------------|
B|------------------------|-------------------|--------------------|
G|------------------------|-------------------|--------------------|
D|------------------------|-------------------|--------------------|
A|------------------------|-------------------|--------------------|
E|------------------------|-------------------|--------------------|

    H         H            H        H           H         H
e|-----------11--------|--10--------8--------|-----------15--------|
B|---------------------|---------------------|---------------------|
G|---------------------|---------------------|---------------------|
D|---------------------|---------------------|---------------------|
A|---------------------|---------------------|---------------------|
E|---------------------|---------------------|---------------------|

     H         H           H         H            Q.      Q.      Q
e|--13--------11--------|-----------11--------|--10------11------10----|
B|----------------------|---------------------|------------------------|
G|----------------------|---------------------|------------------------|
D|----------------------|---------------------|------------------------|
A|----------------------|---------------------|------------------------|
E|----------------------|---------------------|------------------------|

    W                   H.           Q       W
e|--8----------------|--L-----------------|-------------------|
B|-------------------|--------------------|-------------------|
G|-------------------|--------------------|-------------------|
D|-------------------|--------------------|-------------------|
A|-------------------|--------------------|-------------------|
E|-------------------|--------------------|-------------------|

     S   S  S  S  S  S  S   S  S   S  S  S  S  S  S  S
e|-----------------------------------------------------|
B|--11h-13-13-13-13-13-11h-13-16p-13-13-13-13-13-13-13-|
G|-----------------------------------------------------|
D|-----------------------------------------------------|
A|-----------------------------------------------------|
E|-----------------------------------------------------|

     S  S  S  S  S  S  S  S  S  S  S  S  S  S  S  S
e|--15-15-15-13-13-13-11-11-13-13-13-11-11-11-------|
B|--------------------------------------------15-15-|
G|--------------------------------------------------|
D|--------------------------------------------------|
A|--------------------------------------------------|
E|--------------------------------------------------|

     S   S  S  S  S  S  S   S  S   S  S  S  S  S  S  S
e|-----------------------------------------------------|
B|--11h-13-13-13-13-13-11h-13-16p-13-13-13-13-13-13-13-|
G|-----------------------------------------------------|
D|-----------------------------------------------------|
A|-----------------------------------------------------|
E|-----------------------------------------------------|

     S  S  S  S  S  S  S  S  S  S  S  S  S  S  S  S
e|--15-15-15-13-13-13-11-11-13-13-13-11-11-11-------|
B|--------------------------------------------15-15-|
G|--------------------------------------------------|
D|--------------------------------------------------|
A|--------------------------------------------------|
E|--------------------------------------------------|

     S   S  S  S  S  S  S   S  S   S  S  S  S  S  S  S
e|-----------------------------------------------------|
B|--11h-13-13-13-13-13-11h-13-16p-13-13-13-13-13-13-13-|
G|-----------------------------------------------------|
D|-----------------------------------------------------|
A|-----------------------------------------------------|
E|-----------------------------------------------------|

     S  S  S  S  S  S  S  S  S  S  S  S  S  S  S  S
e|--15-15-15-13-13-13-11-11-13-13-13-11-11-11-------|
B|--------------------------------------------15-15-|
G|--------------------------------------------------|
D|--------------------------------------------------|
A|--------------------------------------------------|
E|--------------------------------------------------|

     S   S  S  S  S  S  S   S  S   S  S  S  S  S  S  S
e|-----------------------------------------------------|
B|--11h-13-13-13-13-13-11h-13-16p-13-13-13-13-13-13-13-|
G|-----------------------------------------------------|
D|-----------------------------------------------------|
A|-----------------------------------------------------|
E|-----------------------------------------------------|

     S  S  S  S  S  S  S  S  S  S  S  S  S  S  S  S    E   E  E  E  E  E  Q
e|--15-15-15-13-13-13-11-11-13-13-13-11-11-11-------|--------------------------|
B|--------------------------------------------15-15-|--6b--8--L--9--8--6-------|
G|--------------------------------------------------|---------------------8----|
D|--------------------------------------------------|--------------------------|
A|--------------------------------------------------|--------------------------|
E|--------------------------------------------------|--------------------------|

    E  E  E  E  S S  S S Q       S  S S  S  S   S  S   S  S   S  S   S S  S S  S
e|----------------------------|--6s-8-6s-8-11s-13-11s-13-13s-15-13s-15-6s-8-6s-8-|
B|--6--6--L--8--6-------------|--------------------------------------------------|
G|----------------8p-5---5----|--------------------------------------------------|
D|---------------------8------|--------------------------------------------------|
A|----------------------------|--------------------------------------------------|
E|----------------------------|--------------------------------------------------|

    S S  S  S S S  S  S  S  S S  S S  S    E     E  E  E  S S    E.  E.  E
e|--8-8-----------------------8----8-11-11--|--8--8--L--6-8-11---6-------|
B|------11-11-6-6-11-11-11-11---11------------|--------------------------8s--|
G|--------------------------------------------|------------------------------|
D|--------------------------------------------|------------------------------|
A|--------------------------------------------|------------------------------|
E|--------------------------------------------|------------------------------|

     E.  E.  E  S  S  S  S Q       S S S S S  S  S S S S S S S  S  S S
e|------------------------------|--------------------------------------|
B|--11---8------6h-8p-6h-8------|--8-8-8-6-8-11p-8-6-8-8-8-6-8-11p-8-6-|
G|-----------8-------------5----|--------------------------------------|
D|------------------------------|--------------------------------------|
A|------------------------------|--------------------------------------|
E|------------------------------|--------------------------------------|

                               \1/
     S  S  S  S  S   S   S  S  H
e|--11----11-13-15p-13p-11--------------|
B|-----11------------------13-----------|
G|----------------------------15--------|
D|--------------------------------------|
A|--------------------------------------|
E|--------------------------------------|

     S   S  S  S  S  S  S   S  S   S  S  S  S  S  S  S
e|-----------------------------------------------------|
B|--11h-13-13-13-13-13-11h-13-16p-13-13-13-13-13-13-13-|
G|-----------------------------------------------------|
D|-----------------------------------------------------|
A|-----------------------------------------------------|
E|-----------------------------------------------------|

     S  S  S  S  S  S  S  S  S  S  S  S  S  S  S  S
e|--15-15-15-13-13-13-11-11-13-13-13-11-11-11-------|
B|--------------------------------------------15-15-|
G|--------------------------------------------------|
D|--------------------------------------------------|
A|--------------------------------------------------|
E|--------------------------------------------------|

     S   S  S  S  S  S  S   S  S   S  S  S  S  S  S  S
e|-----------------------------------------------------|
B|--11h-13-13-13-13-13-11h-13-16p-13-13-13-13-13-13-13-|
G|-----------------------------------------------------|
D|-----------------------------------------------------|
A|-----------------------------------------------------|
E|-----------------------------------------------------|

     S  S  S  S  S  S  S  S  S  S  S  S  S  S  S  S
e|--15-15-15-13-13-13-11-11-13-13-13-11-11-11-------|
B|--------------------------------------------15-15-|
G|--------------------------------------------------|
D|--------------------------------------------------|
A|--------------------------------------------------|
E|--------------------------------------------------|

     S   S  S  S  S  S  S   S  S   S  S  S  S  S  S  S
e|-----------------------------------------------------|
B|--11h-13-13-13-13-13-11h-13-16p-13-13-13-13-13-13-13-|
G|-----------------------------------------------------|
D|-----------------------------------------------------|
A|-----------------------------------------------------|
E|-----------------------------------------------------|

     S  S  S  S  S  S  S  S  S  S  S  S  S  S  S  S
e|--15-15-15-13-13-13-11-11-13-13-13-11-11-11-------|
B|--------------------------------------------15-15-|
G|--------------------------------------------------|
D|--------------------------------------------------|
A|--------------------------------------------------|
E|--------------------------------------------------|

     S   S  S  S  S  S  S   S  S   S  S  S  S  S  S  S
e|-----------------------------------------------------|
B|--11h-13-13-13-13-13-11h-13-16p-13-13-13-13-13-13-13-|
G|-----------------------------------------------------|
D|-----------------------------------------------------|
A|-----------------------------------------------------|
E|-----------------------------------------------------|

     S  S  S  S  S  S  S  S  S  S  S  S  S  S  S  S
e|--15-15-15-13-13-13-11-11-13-13-13-11-11-11-------|
B|--------------------------------------------15-15-|
G|--------------------------------------------------|
D|--------------------------------------------------|
A|--------------------------------------------------|
E|--------------------------------------------------|

    S S S S   E  S S E  E  E    E     E.  E.  E    H
e|---------------------------------|-------------------------|
B|---------------------------------|-------------------------|
G|--5-5-5-5-8--5-5-7--------7--|-------------7b--------|
D|----------------------8--5-------|--5---6---8--------------|
A|---------------------------------|-------------------------|
E|---------------------------------|-------------------------|

    S S S S S S S S S S S S S S S S    S S S S S S S S S S S S   Q
e|----------------------------------|--------------------------6~----|
B|--------------------------9-8-6-8-|------------6-8-9-8-6-8-9---------|
G|------5-7-8-7-5-7-5---7-8---------|--5---5-7-8-----------------------|
D|--7-8---------------8-------------|----8-----------------------------|
A|----------------------------------|----------------------------------|
E|----------------------------------|----------------------------------|

    E.    E.  E  E.    E.  E     S   S S   S  Q     S  S  S  Q    S
e|------6-------------------|--------------13----13-11-10-11------|
B|--8---------8--6---8---6--|-------------------------------------|
G|----------------------------|--8s-10-8s-10------------------------|
D|----------------------------|-------------------------------------|
A|----------------------------|-------------------------------------|
E|----------------------------|-------------------------------------|

     S  S  S  S S S  S S S S S S S S S S    S S S S S S S S S S S S S  S S  S
e|--13----15----8---10-------------------|--------------------------8-11-8-11-|
B|-----13----13---8----8-9-6-------------|------------------6---6-8-----------|
G|---------------------------8-5-8---5---|------5---5-8-5-8---8---------------|
D|---------------------------------8---8-|--5-8---8---------------------------|
A|---------------------------------------|------------------------------------|
E|---------------------------------------|------------------------------------|

     E   S  S  E   E   E   E   E   E      E   S  S  E   E   E   E   Q
e|--15--15-15-15--13--------------13--|--15--15-15-15--13------18--15----|
B|--------------------16--13--16------|--------------------16------------|
G|------------------------------------|----------------------------------|
D|------------------------------------|----------------------------------|
A|------------------------------------|----------------------------------|
E|------------------------------------|----------------------------------|

     E   S  S  E   E   E   E   E   E
e|--15--15-15-15--13--------------13--|
B|--------------------16--13--16------|
G|------------------------------------|
D|------------------------------------|
A|------------------------------------|
E|------------------------------------|

     S   S   S  S  S  S  S  S  S   S  S  S    Q
e|--13h-15p-13----------13-15-18p-15----15-15----|
B|-------------16-13-16--------------18------------|
G|-------------------------------------------------|
D|-------------------------------------------------|
A|-------------------------------------------------|
E|-------------------------------------------------|

     E   S  S  E   E   E   E   E   E      E   S  S  E   E   E   E   Q
e|--15--15-15-15--13--------------13--|--15--15-15-15--13------18--15----|
B|--------------------16--13--16------|--------------------16------------|
G|------------------------------------|----------------------------------|
D|------------------------------------|----------------------------------|
A|------------------------------------|----------------------------------|
E|------------------------------------|----------------------------------|

     E   S  S  E   E   E   E   E   E
e|--15--15-15-15--13--------------13--|
B|--------------------16--13--16------|
G|------------------------------------|
D|------------------------------------|
A|------------------------------------|
E|------------------------------------|

     S   S  S  S  S  S  S   S E   E   E   E
e|--15p-13----------13-15p-13-8--11--13--15--|
B|---------16-13-16--------------------------|
G|----------------------------5---8--10--12--|
D|-------------------------------------------|
A|-------------------------------------------|
E|-------------------------------------------|

     S   S  S  S  S  S  S   S  E   E   E  E     W
e|--15p-13----------13--------15--13--11--8--|-------------------|
B|---------16-13-16----16p-13----------------|-------------------|
G|----------------------------12--10---8--5--|-------------------|
D|-------------------------------------------|-------------------|
A|-------------------------------------------|-------------------|
E|-------------------------------------------|-------------------|

     S  S  S  S  S  S  S  S  S  S  S  S  S  S  S  S
e|--------------------------------------------------|
B|--------------------------------------------------|
G|--------------------------------------12----12-13-|
D|--13-12----12----------------12-13-15----15-------|
A|--------15----15-11----11-15----------------------|
E|--------------------15----------------------------|

     S  S  S  S  S. S. S  S  S  S  S  Q
e|-------------------------------------------|
B|--------13----13-15-16-15-16-18-16-18b~----|
G|--12-13----15------------------------------|
D|-------------------------------------------|
A|-------------------------------------------|
E|-------------------------------------------|

     S  S  S  S  S  S  S  S  S  S  S  S  S  S  S  S
e|--13----------------------13----13-15-13-15-16----|
B|-----16-15-13----13-15-16----16----------------18-|
G|--------------13----------------------------------|
D|--------------------------------------------------|
A|--------------------------------------------------|
E|--------------------------------------------------|

     S  S  S  S  S  S  S  S  H
e|--16-15-18-15-------------18b~--------|
B|--------------18-16-15-16-------------|
G|--------------------------------------|
D|--------------------------------------|
A|--------------------------------------|
E|--------------------------------------|

                                               W  W
     S  S  S  S  S  S  S  S  S  S  S  S  S  S  S  S
e|--20-18-20-16-20-15-13-------------13-15-16-18-18-|
B|-----------------------16-15-13-15----------------|
G|--------------------------------------------------|
D|--------------------------------------------------|
A|--------------------------------------------------|
E|--------------------------------------------------|

     S  S  S  S  S  S  S  S  S  S  S  S  Q
e|--18-16-18-15-18-13----------------13-16~----|
B|--------------------16-15-13-15-16-----------|
G|---------------------------------------------|
D|---------------------------------------------|
A|---------------------------------------------|
E|---------------------------------------------|


     S  S  S  S  S  S  S  S  S  S  S  S  S  S  S  S
e|--------13----13-15-13----13----------------------|
B|--13-16----16----------16----16-15-16-15-13-------|
G|--------------------------------------------15-12-|
D|--------------------------------------------------|
A|--------------------------------------------------|
E|--------------------------------------------------|


     S  S  S  S  S  S  S  S  S  S  S  S  S  S  S  S
e|--------------------------------------------------|
B|--------------------------------------------13-15-|
G|--13-15-13-12----------------------12-13-15-------|
D|--------------15-13-12----12-13-15----------------|
A|-----------------------15-------------------------|
E|--------------------------------------------------|


     Q     E    Q     E   E   E      E    E   E    E   E    E    Q
e|--20----18S--23----18--20--18--|--20S--18--15S--13-----------/15----|
B|-------------------------------|--------------------13S--11---------|
G|-------------------------------|------------------------------------|
D|-------------------------------|------------------------------------|
A|-------------------------------|------------------------------------|
E|-------------------------------|------------------------------------|


     E   E   E    E   E   E    Q           E     E   E   E   E    E   Q
e|--22--22s--6--/23--22--20s--18----|--/13--13--\1--15--13s--20--20----|
B|----------------------------------|--------------------------------------|
G|----------------------------------|--------------------------------------|
D|----------------------------------|--------------------------------------|
A|----------------------------------|--------------------------------------|
E|----------------------------------|--------------------------------------|


        (Octave pedal/Harmonizer)
        W                        W    W    W    W  W  W   W    W    W    W    W
        S                        S    S    S    S  S  S   S    S    S    S    S
e|------------------------------------------------15-20s-15------------------------|
B|-------------------------------------------16-----------16-------------------|>
G|--------------------------------------17---------------------17------17----|
D|---------------------------------17-------------------------------17---------|
A|--/15---------------------18-------------------------------------------------|
E|---------------------------------------------------------------------------------|


      W  W   W  W   W    W    W    W    W  T    W    W    T
      S  S   S  S   S    S    S    S    S  S    S    S    Q
e|---------/15-20s-15---------------------20-----------20~----|
B|------16------------16------16--------------16----------|
G|--/17--------------------17------17----17---------------|
D|--------------------------------------------------------------|
A|--------------------------------------------------------------|
E|--------------------------------------------------------------|


       T         T         T                   T         T         T
       S    S    S    S    S    S    S    S    S    S    S    S    S    S    S
e|--20-15-20-15-20-15-13-15-20-15-20-15-20-15-13-1-|
B|---------------------------------------------------------------------------------|
G|---------------------------------------------------------------------------------|
D|---------------------------------------------------------------------------------|
A|---------------------------------------------------------------------------------|
E|---------------------------------------------------------------------------------|


                                               tap bend
       T         T         T                          T
       S    S    S    S    S    S    S    S    Q      Q
e|--20-15-20-15-20-15-13-15-17b-----L----|
B|---------------------------------------------------------|
G|---------------------------------------------------------|
D|---------------------------------------------------------|
A|---------------------------------------------------------|
E|---------------------------------------------------------|


     S. S. S  S  S  S  S  S  S  S  S  S  S  S  S      E   Q     E   E   E   Q
e|-----------------------------------10-12-13-15-|--/18--18----20--18------------|
B|-----------------------------11-13-------------|---------------------20--16----|
G|-----------------10-12-10-12-------------------|-------------------------------|
D|-----------10-12-------------------------------|-------------------------------|
A|--10-11-13-------------------------------------|-------------------------------|
E|-----------------------------------------------|-------------------------------|


   T        T        T        T        T        T        T        T
   |--3--|  |--3--|  |--3--|  |--3--|  |--3--|  |--3--|  |--3--|  |--3--|
   S  S  S  S  S  S  S  S  S  S  S  S  S  S  S  S  S  S  S  S  S  S  S  S
--20-15-11-20-11-15-20-15-11-20-11-15-20-15-11-20-11-15-20-15-11-20-11-15-|
--------------------------------------------------------------------------|
--------------------------------------------------------------------------|
--------------------------------------------------------------------------|
--------------------------------------------------------------------------|
--------------------------------------------------------------------------|


     S  S  S  S  E   E    E    E   E   E
e|--20-20-20-20-18--15s--18s--15------15--|
B|--------------------------------18------|
G|----------------------------------------|
D|----------------------------------------|
A|----------------------------------------|
E|----------------------------------------|


     T     T     T     T     T     T     T     T     T     T     T     T     T
     T  T  T  T  T  T  T  T  T  T  T  T  T  T  T  T  T  T  T  T  T  T  T  T  T  T
e|--20-11-20-11-18-11-18-11-20-11-20-11-16-11-16-11-20-11-20-11-18-11-18-11-20-11-|
B|--------------------------------------------------------------------------------|
G|--------------------------------------------------------------------------------|
D|--------------------------------------------------------------------------------|
A|--------------------------------------------------------------------------------|
E|--------------------------------------------------------------------------------|


     S   S  S  S  S  S  S  S  S  S  S  S  E   E
e|--20p-16----------------16-18-16-18-20-23------|
B|---------16----------16--------------------21--|
G|------------17----17---------------------------|
D|---------------18------------------------------|
A|-----------------------------------------------|
E|-----------------------------------------------|


     S  S  S  S  S  S  S  S  H               S S  S  S  S  S  S  S  H
e|-----18----18----22----22-22pbr--------|----------------------10-16pbr~--------|
B|--18----18----18----18-----------------|-------------10-11-13------------------|
G|---------------------------------------|-----8-10-12---------------------------|
D|---------------------------------------|--12-----------------------------------|
A|---------------------------------------|---------------------------------------|
E|---------------------------------------|---------------------------------------|


     H           Q.        S  S     E   E   E   E   Q.      S   S
e|------------------------------|---------------------------------|
B|--18b~--------18b~------18-16-|--18--16-------------------------|
G|------------------------------|----------17--15~--L-------------|
D|------------------------------|--------------------------15h-17-|
A|------------------------------|---------------------------------|
E|------------------------------|---------------------------------|


     E   E   E   E   E   E   E   E      E   E   E   E     H
e|----------------------------------|-------------------------------|
B|----------------------------------|------16--18------16~--------|
G|--15--------------------------15--|--17----------15---------------|
D|------17--16--15------15--17------|-------------------------------|
A|------------------18--------------|-------------------------------|
E|----------------------------------|-------------------------------|


    Q     Q     E  E   E   E      Q.        Q     Q     E
e|-------15----16-----18--16--|--18br------18----16----15--|
B|----------------------------|----------------------------|
G|----------------------------|----------------------------|
D|----------------------------|----------------------------|
A|----------------------------|----------------------------|
E|----------------------------|----------------------------|


     E    E   E   E   E   E   E   E     Q     E   E   E.     S  Q
e|--16p--15--------------------------|-------------------------------|
B|-----------16--------------18--16--|--L----18--16--18br---16-------|
G|---------------15------15----------|-------------------------15----|
D|-------------------17--------------|-------------------------------|
A|-----------------------------------|-------------------------------|
E|-----------------------------------|-------------------------------|


     E   E   E   E  E   E   E   E     E   E   E   E   S   S  S  S  Q
e|------18-------------15----------|---------11--13--15p-13----13-18----|
B|--16------16--13--L------13--11--|--9--11-----------------16----------|
G|---------------------------------|------------------------------------|
D|---------------------------------|------------------------------------|
A|---------------------------------|------------------------------------|
E|---------------------------------|------------------------------------|


       whammy bar
       Q          Q        Q        Q         Q.       H          E
e|----------------------------------------|--13b------15br--------L--|
B|----------------------------------------|--------------------------|
G|--15b---------------------------------|--------------------------|
D|-------------15b----13b-------------|--------------------------|
A|-------------------------------15b----|--------------------------|
E|----------------------------------------|--------------------------|


                     |--3--|                    |--3--|
   S  S  S  S  S  S  S  S  S  S  S  S  S  S  S  S  S  S
--20-16----------16-20-16----20-16----------16-20-16----|
--------20-16-20----------20-------20-16-20----------20-|
--------------------------------------------------------|
--------------------------------------------------------|
--------------------------------------------------------|
--------------------------------------------------------|


                 T        T        T
     S  S  S  S  S  S  S  S  S  S  S  S  E   E
e|--20-16---------------------------------------|
B|--------20-16---------------------------------|
G|--------------19-17-15------------------------|
D|-----------------------18-15-13-15-18-17--15--|
A|----------------------------------------------|
E|----------------------------------------------|


     E   S  S  S  S  S  S  S  S  S  S  S  S  S  S
e|---------------18-16-15-------------------------|
B|------------16----------18-16-15----------------|
G|---------15----------------------17-15-13-------|
D|------17----------------------------------17-15-|
A|--18--------------------------------------------|
E|------------------------------------------------|


     S  S  S  S  S  S  S  S  S  S  S  S  S  S  E       Q.      Q       E.  S  E
e|------------------------------------------------|------------------------------|
B|-----------------13-15-16-15-13----------13-15--|--/16------16----13-----13--|
G|--------12-13-15----------------15-13-15--------|------------------------------|
D|--13-15-----------------------------------------|------------------------------|
A|------------------------------------------------|------------------------------|
E|------------------------------------------------|------------------------------|


     E   E  E     Q      Q     E      S   S  S  S  S   S   S  S  H
e|------13-----15~--------------|----------------------------------------|
B|--16------------------16----15--|--13p-11--------------------------------|
G|--------------------------------|---------12----10h-12p-10----10b--------|
D|--------------------------------|------------13------------13------------|
A|--------------------------------|----------------------------------------|
E|--------------------------------|----------------------------------------|


     E  E   E    E   H             E   E   E   E   E   E   E   E
e|----------------------------|--/15--15--11--15--15--11--15--11--|
B|----------------------------|-----------------------------------|
G|--10--8--12--8~--L--------|-----------------------------------|
D|----------------------------|-----------------------------------|
A|----------------------------|-----------------------------------|
E|----------------------------|-----------------------------------|


     E   E  E   E  E   E     Q
e|--15--16-----15-----11--11~----|
B|---------------------------------|
G|---------------------------------|
D|---------------------------------|
A|---------------------------------|
E|---------------------------------|


     S  S  S  S  S  S  S  S  S  S  S  S  S  S  S  S
e|--------------------------------------------------|
B|--------------------------------------------------|
G|--------------12-------12-13----12-13-15-12-13-15-|
D|--------13-15----13-15-------15-------------------|
A|--15-17-------------------------------------------|
E|--------------------------------------------------|


     T     T                 T     T
     S  S  S  S  S  S  S  S  S  S  S  S  S  S  S  S
e|--------------15-13-------------------18-15-------|
B|--16-13-18-13-------16-13-18-15-20-15-------16-13-|
G|--------------------------------------------------|
D|--------------------------------------------------|
A|--------------------------------------------------|
E|--------------------------------------------------|


     S  S  S  S  S  S  S  S  S  S  S  S  S  S  S  S
e|--------------------------------------------------|
B|--------------------------------------------------|
G|--20-20-------22-22-------24-24-------22-22-------|
D|--------22-22-------22-22-------22-22-------22-22-|
A|--------------------------------------------------|
E|--------------------------------------------------|


   T       T       T       T       T       T       T       T
   |--3-|  |--3-|  |--3-|  |--3-|  |--3-|  |--3-|  |--3-|  |--3-|
   S  S S  S  S S  S  S S  S  S S  S  S S  S  S S  S  S S  S  S S
--16-11-8-16-11-8-16-11-8-16-11-8-16-11-8-16-11-8-16-11-8-16-11-8-|
------------------------------------------------------------------|
------------------------------------------------------------------|
------------------------------------------------------------------|
------------------------------------------------------------------|
------------------------------------------------------------------|


     S  S  S  S  S  S  S  S  S  S  S  S  S  S  S  S
e|-----------11-13-15-13-11-13-11-------------------|
B|--13-11-13----------------------13-11----------11-|
G|--------------------------------------12-10-12----|
D|--------------------------------------------------|
A|--------------------------------------------------|
E|--------------------------------------------------|


     S  S  S  S  S  S  S  S  S  S  S  S    Q         E   E   E   E  E   Q     E
e|----------------------------------------------|--/11--10--11--10---------------|
B|--13-13-11----11-11---------------------------|----------------------11----11--|
G|-----------12-------12-12-10-12-10------------|--------------------------------|
D|-----------------------------------13-13----|--------------------------------|
A|----------------------------------------------|--------------------------------|
E|----------------------------------------------|--------------------------------|


       Q.         E   E   E     Q
e|------------------------------------|
B|--15brb---------------------------|
G|---------------12--10---------------|
D|-----------------------13--13~----|
A|------------------------------------|
E|------------------------------------|


                             T  W  T  W  T  W  T  W
     S  S  S  S  S  S  S  S  S  S  S  S  S  S  S  S
e|--------------------------------------------------|
B|--------------------------------------------------|
G|--------------12-13-15-17-17-12-17-12-17-12-17-12-|
D|-----12-13-15-------------------------------------|
A|--15----------------------------------------------|
E|--------------------------------------------------|

 
     whammy bar dive
     T                     T        T        T        T        T        T        T
     |---------3--------|  |--3--|  |--3--|  |--3--|  |--3--|  |--3--|  |--3--|  |
     S               S  S  S  S  S  S  S  S  S  S  S  S  S  S  S  S  S  S  S  S  S
e|--20--------------16-15-20-16-15-20-16-15-20-16-15-20-16-15-20-16-15-20-16-15-20-|
B|---------------------------------------------------------------------------------|
G|---------------------------------------------------------------------------------|
D|---------------------------------------------------------------------------------|
A|---------------------------------------------------------------------------------|
E|---------------------------------------------------------------------------------|


    W                   W                   W                   W
e|-------------------|-------------------|-------------------|-------------------|
B|-------------------|-------------------|-------------------|-------------------|
G|-------------------|-------------------|-------------------|-------------------|
D|-------------------|-------------------|-------------------|-------------------|
A|-------------------|-------------------|-------------------|-------------------|
E|-------------------|-------------------|-------------------|-------------------|


    W                   W                   W                   W
e|-------------------|-------------------|-------------------|-------------------|
B|-------------------|-------------------|-------------------|-------------------|
G|-------------------|-------------------|-------------------|-------------------|
D|-------------------|-------------------|-------------------|-------------------|
A|-------------------|-------------------|-------------------|-------------------|
E|-------------------|-------------------|-------------------|-------------------|


    W                   W                   W                   W
e|-------------------|-------------------|-------------------|-------------------|
B|-------------------|-------------------|-------------------|-------------------|
G|-------------------|-------------------|-------------------|-------------------|
D|-------------------|-------------------|-------------------|-------------------|
A|-------------------|-------------------|-------------------|-------------------|
E|-------------------|-------------------|-------------------|-------------------|


    W                   W
e|-------------------|-------------------|
B|-------------------|-------------------|
G|-------------------|-------------------|
D|-------------------|-------------------|
A|-------------------|-------------------|
E|-------------------|-------------------|


       S  S    S   S    S  S    S   S    S  S    S   S    S  S    S S
e|--15-15s-3-3-15-15s-3-3-15-15s-3-3-15-15s-3-3s-|
B|---------------------------------------------------------------------|
G|---------------------------------------------------------------------|
D|---------------------------------------------------------------------|
A|---------------------------------------------------------------------|
E|---------------------------------------------------------------------|


     H.           Q       W                   W
e|--15-----------------|-------------------|-------------------|
B|---------------------|-------------------|-------------------|
G|---------------------|-------------------|-------------------|
D|---------------------|-------------------|-------------------|
A|---------------------|-------------------|-------------------|
E|---------------------|-------------------|-------------------| 


     S  S  S  S S S  S  S  S  S S S  S  S S S
e|--11-11-11-11-8-8-11-11-11-11-8-8-11-11-8-8-|
B|--------------------------------------------|
G|--------------------------------------------|
D|--------------------------------------------|
A|--------------------------------------------|
E|--------------------------------------------|


     S  S  S  S S S  S  S  S  S S S  S  S S S
e|--11-11-11-11-8-8-11-11-11-11-8-8-11-11-8-8-|
B|--------------------------------------------|
G|--------------------------------------------|
D|--------------------------------------------|
A|--------------------------------------------|
E|--------------------------------------------|


     S  S  S  S  S  S  S  S  S  S  S  S  S  S  S  S
e|--15-15-15-15-11-11-15-15-15-15-11-11-15-15-11-11-|
B|--------------------------------------------------|
G|--------------------------------------------------|
D|--------------------------------------------------|
A|--------------------------------------------------|
E|--------------------------------------------------|


     S  S  S  S  S  S  S  S  S  S  S  S  S  S  S  S
e|--15-15-15-15-11-11-15-15-15-15-11-11-15-15-11-11-|
B|--------------------------------------------------|
G|--------------------------------------------------|
D|--------------------------------------------------|
A|--------------------------------------------------|
E|--------------------------------------------------|


     S  S  S  S S S  S  S  S  S S S  S  S S S
e|--13-13-13-13-8-8-13-13-13-13-8-8-13-13-8-8-|
B|--------------------------------------------|
G|--------------------------------------------|
D|--------------------------------------------|
A|--------------------------------------------|
E|--------------------------------------------|


     S  S  S  S S S  S  S  S  S S S  S  S S S
e|--13-13-13-13-8-8-13-13-13-13-8-8-13-13-8-8-|
B|--------------------------------------------|
G|--------------------------------------------|
D|--------------------------------------------|
A|--------------------------------------------|
E|--------------------------------------------|


     S  S  S  S S S  S  S  S  S S S  S  S S S
e|--11-11-11-11-8-8-11-11-11-11-8-8-11-11-8-8-|
B|--------------------------------------------|
G|--------------------------------------------|
D|--------------------------------------------|
A|--------------------------------------------|
E|--------------------------------------------|


    S  S  S S  S S  S S  S  S  S S  S S  S S
e|-------------------------------------------|
B|-------------------------------------------|
G|----------8----8-10-8-10-12-10-8-10-8------|
D|--8-10-12---12------------------------10-8-|
A|-------------------------------------------|
E|-------------------------------------------|


     S  S  S  S S S  S  S  S  S S S  S  S S S
e|--11-11-11-11-8-8-11-11-11-11-8-8-11-11-8-8-|
B|--------------------------------------------|
G|--------------------------------------------|
D|--------------------------------------------|
A|--------------------------------------------|
E|--------------------------------------------|


     S  S  S  S S S  S  S  S  S S S  S  S S S
e|--11-11-11-11-8-8-11-11-11-11-8-8-11-11-8-8-|
B|--------------------------------------------|
G|--------------------------------------------|
D|--------------------------------------------|
A|--------------------------------------------|
E|--------------------------------------------|


     S  S  S  S  S  S  S  S  S  S  S  S  S  S  S  S
e|--15-15-15-15-11-11-15-15-15-15-11-11-15-15-11-11-|
B|--------------------------------------------------|
G|--------------------------------------------------|
D|--------------------------------------------------|
A|--------------------------------------------------|
E|--------------------------------------------------|


     S  S  S  S  S  S  S  S  S  S  S  S  S  S  S  S
e|--15-15-15-15-11-11-15-15-15-15-11-11-15-15-11-11-|
B|--------------------------------------------------|
G|--------------------------------------------------|
D|--------------------------------------------------|
A|--------------------------------------------------|
E|--------------------------------------------------|


     S  S  S  S S S  S  S  S  S S S  S  S S S
e|--13-13-13-13-8-8-13-13-13-13-8-8-13-13-8-8-|
B|--------------------------------------------|
G|--------------------------------------------|
D|--------------------------------------------|
A|--------------------------------------------|
E|--------------------------------------------|


     S  S  S  S S S  S  S  S  S S S  S  S S S
e|--13-13-13-13-8-8-13-13-13-13-8-8-13-13-8-8-|
B|--------------------------------------------|
G|--------------------------------------------|
D|--------------------------------------------|
A|--------------------------------------------|
E|--------------------------------------------|


               |---3---|
   S  S  S  S  S   S   S  S  S  S  S  S  S  S  S  S  S
e|--------------15h-16p-15-------------------------------|
B|-----------16------------16----16----------------------|
G|--------17------------------17----17----17-------------|
D|-----17------------------------------17----17----17----|
A|--18------------------------------------------18----18-|
E|-------------------------------------------------------|


                            |---3--|  |---3--|  |---3--|
    S  S  S  S  S  S  S  S  S   S  S  S   S  S  S   S  S  S   S
e|--------------------15----16p-15----16p-15----16p-15----16p-15-|
B|--------------16-------16--------16--------16--------16--------|
G|-----------17----17--------------------------------------------|
D|--------17-----------------------------------------------------|
A|--15-18--------------------------------------------------------|
E|---------------------------------------------------------------|


     PM  PM  PM  PM  PM  PM  PM  PM     PM  PM  PM  PM  PM  PM  PM  PM
     E   E   E   E   E   E   E   E      E   E   E   E   E   E   E   E
e|--15--18--18--15--18--18--15--18--|--18--15--15--18--18--15----------|
B|----------------------------------|--------------------------18--16--|
G|----------------------------------|----------------------------------|
D|----------------------------------|----------------------------------|
A|----------------------------------|----------------------------------|
E|----------------------------------|----------------------------------|


     PM  PM  PM  PM  PM  PM  PM  PM     PM  PM  PM  PM  PM  PM  PM  PM
     E   E   E   E   E   E   E   E      E   E   E   E   E   E   E   E
e|--13--15--15--13--15--15--13--15--|--15--13--15--15--16--15--13------|
B|----------------------------------|------------------------------16--|
G|----------------------------------|----------------------------------|
D|----------------------------------|----------------------------------|
A|----------------------------------|----------------------------------|
E|----------------------------------|----------------------------------|


     E   E   E   E  E   E  E   E     E   E  E   E   E   E   E  E
e|--13--13--13--13-----13-----13--|-----13-----13--13--13--13-----|
B|--------------------------------|-------------------------------|
G|--------------------------------|-------------------------------|
D|--------------------------------|-------------------------------|
A|--------------------------------|-------------------------------|
E|--------------------------------|-------------------------------|


     S   S   S   S   S   S   S   S   S   S   S   S   S   S   S   S
e|--18p-15h-18p-15h-18p-15h-18p-15h-18p-15h-18p-15h-18p-15h-18p-15-|
B|-----------------------------------------------------------------|
G|-----------------------------------------------------------------|
D|-----------------------------------------------------------------|
A|-----------------------------------------------------------------|
E|-----------------------------------------------------------------|


     S   S   S   S   S   S   S   S   S   S   S   S   S   S   S   S
e|--18p-15h-18p-15h-18p-15h-18p-15h-18p-15h-18p-15h-18p-15h-18p-15-|
B|-----------------------------------------------------------------|
G|-----------------------------------------------------------------|
D|-----------------------------------------------------------------|
A|-----------------------------------------------------------------|
E|-----------------------------------------------------------------|


     S   S   S   S   S   S   S   S   S   S   S   S   S   S   S   S
e|--18p-15h-18p-15h-18p-15h-18p-15h-18p-15h-18p-15h-18p-15h-18p-15-|
B|-----------------------------------------------------------------|
G|-----------------------------------------------------------------|
D|-----------------------------------------------------------------|
A|-----------------------------------------------------------------|
E|-----------------------------------------------------------------|


     S   S   S   S   S   S   S   S   S   S   S   S   S   S   S   S
e|--18p-15h-18p-15h-18p-15h-18p-15h-18p-15h-18p-15h-18p-15h-18p-15-|
B|-----------------------------------------------------------------|
G|-----------------------------------------------------------------|
D|-----------------------------------------------------------------|
A|-----------------------------------------------------------------|
E|-----------------------------------------------------------------|


     S   S   S   S   S   S   S   S   S   S   S   S   S   S   S   S
e|--18p-15h-18p-15h-18p-15h-18p-15h-18p-15h-18p-15h-18p-15h-18p-15-|
B|-----------------------------------------------------------------|
G|-----------------------------------------------------------------|
D|-----------------------------------------------------------------|
A|-----------------------------------------------------------------|
E|-----------------------------------------------------------------|


     S   S   S   S   S   S   S   S   S   S   S   S   S   S   S   S
e|--18p-15h-18p-15h-18p-15h-18p-15h-18p-15h-18p-15h-18p-15h-18p-15-|
B|-----------------------------------------------------------------|
G|-----------------------------------------------------------------|
D|-----------------------------------------------------------------|
A|-----------------------------------------------------------------|
E|-----------------------------------------------------------------|


     PM  PM  PM  PM  PM  PM  PM  PM
     E   E   E   E   E   E   E   E        H         H
e|--16--15--13------15--13----------|--15b--------------------|
B|--------------16----------16--15--|---------------------------|
G|--13--12--10------12--10----------|---------------7pbr--------|
D|--------------13----------13--12--|---------------------------|
A|----------------------------------|---------------------------|
E|----------------------------------|---------------------------|


                       |-----3-----|
   S   S   E   E   E   Q     Q     Q          Q.      H        E
e|--11h-13p-11----------------------------|-------------------------||
B|--------------13--11--------11----13----|--13~------------------||
G|----------------------12----------------|-------------------------||
D|----------------------------------------|-------------------------||
A|----------------------------------------|-------------------------||
E|----------------------------------------|-------------------------|| 


[Lead Guitar 2] 

    W                    S  S  S  S S S  S  S  S  S S S  S  S S S
e|-------------------|--------------------------------------------|
B|-------------------|--13-13-13-13-8-8-13-13-13-13-8-8-13-13-8-8-|
G|-------------------|--------------------------------------------|
D|-------------------|--------------------------------------------|
A|-------------------|--------------------------------------------|
E|-------------------|--------------------------------------------|


     S  S  S  S S S  S  S  S  S S S  S  S S S
e|--------------------------------------------|
B|--13-13-13-13-8-8-13-13-13-13-8-8-13-13-8-8-|
G|--------------------------------------------|
D|--------------------------------------------|
A|--------------------------------------------|
E|--------------------------------------------|


     S  S  S  S  S  S  S  S  S  S  S  S  S  S  S  S
e|--------------------------------------------------|
B|--16-16-16-16-13-13-16-16-16-16-13-13-16-16-13-13-|
G|--------------------------------------------------|
D|--------------------------------------------------|
A|--------------------------------------------------|
E|--------------------------------------------------|


     S  S  S  S  S  S  S  S  S  S  S  S  S  S  S  S
e|--------------------------------------------------|
B|--16-16-16-16-13-13-16-16-16-16-13-13-16-16-13-13-|
G|--------------------------------------------------|
D|--------------------------------------------------|
A|--------------------------------------------------|
E|--------------------------------------------------|


     S  S  S  S S S  S  S  S  S S S  S  S S S
e|--------------------------------------------|
B|--13-13-13-13-9-9-13-13-13-13-9-9-13-13-9-9-|
G|--------------------------------------------|
D|--------------------------------------------|
A|--------------------------------------------|
E|--------------------------------------------|


     S  S  S  S S S  S  S  S  S S S  S  S S S
e|--------------------------------------------|
B|--13-13-13-13-9-9-13-13-13-13-9-9-13-13-9-9-|
G|--------------------------------------------|
D|--------------------------------------------|
A|--------------------------------------------|
E|--------------------------------------------|


     S  S  S  S S S  S  S  S  S S S  S  S S S
e|--------------------------------------------|
B|--13-13-13-13-8-8-13-13-13-13-8-8-13-13-8-8-|
G|--------------------------------------------|
D|--------------------------------------------|
A|--------------------------------------------|
E|--------------------------------------------|


    S  S  S  S  S  S  S  S   E    E    Q
e|-------------------------------------------|
B|--8-11-13-15-11-13-15-16-/13--/15--/16~----|
G|-------------------------------------------|
D|-------------------------------------------|
A|-------------------------------------------|
E|-------------------------------------------|


     S  S  S  S S S  S  S  S  S S S  S  S S S
e|--------------------------------------------|
B|--13-13-13-13-8-8-13-13-13-13-8-8-13-13-8-8-|
G|--------------------------------------------|
D|--------------------------------------------|
A|--------------------------------------------|
E|--------------------------------------------|


     S  S  S  S S S  S  S  S  S S S  S  S S S
e|--------------------------------------------|
B|--13-13-13-13-8-8-13-13-13-13-8-8-13-13-8-8-|
G|--------------------------------------------|
D|--------------------------------------------|
A|--------------------------------------------|
E|--------------------------------------------|


     S  S  S  S  S  S  S  S  S  S  S  S  S  S  S  S
e|--------------------------------------------------|
B|--16-16-16-16-13-13-16-16-16-16-13-13-16-16-13-13-|
G|--------------------------------------------------|
D|--------------------------------------------------|
A|--------------------------------------------------|
E|--------------------------------------------------|


     S  S  S  S  S  S  S  S  S  S  S  S  S  S  S  S
e|--------------------------------------------------|
B|--16-16-16-16-13-13-16-16-16-16-13-13-16-16-13-13-|
G|--------------------------------------------------|
D|--------------------------------------------------|
A|--------------------------------------------------|
E|--------------------------------------------------|


     S  S  S  S S S  S  S  S  S S S  S  S S S
e|--------------------------------------------|
B|--13-13-13-13-9-9-13-13-13-13-9-9-13-13-9-9-|
G|--------------------------------------------|
D|--------------------------------------------|
A|--------------------------------------------|
E|--------------------------------------------|


     S  S  S  S S S  S  S  S  S S S  S  S S S
e|--------------------------------------------|
B|--13-13-13-13-9-9-13-13-13-13-9-9-13-13-9-9-|
G|--------------------------------------------|
D|--------------------------------------------|
A|--------------------------------------------|
E|--------------------------------------------|


                                                      /1
     S  S  S  S S  S  S S   S  S  S  S S  S  S S      W
e|-----------------------------------------------|----------------------|
B|--13p-9---------------9--13p-9---------------9-|--(18)----------------|
G|--------10----8-10-12----------10----8-10-12---|----------------------|
D|-----------10---------------------10-----------|--(15)----------------|
A|-----------------------------------------------|----------------------|
E|-----------------------------------------------|----------------------| 


     E  E  E  E  E  E  E  E      E  E  E  E  E  E  E  E
e|---------------------------|---------------------------|
B|---------------------------|---------------------------|
G|--10--------8--------7-----|--10--------8--------7-----|
D|------6--6-----6--6-----6--|------6--6-----6--6-----6--|
A|---------------------------|---------------------------|
E|---------------------------|---------------------------|


     T     T     T     T     T     T     T     T
     S  S  S  S  S  S  S  S  S  S  S  S  S  S  S  S
e|--15-11-15-11-15-11-15-11-15-11-15-11-15-11-15-11-|
B|--------------------------------------------------|
G|--------------------------------------------------|
D|--------------------------------------------------|
A|--------------------------------------------------|
E|--------------------------------------------------|


     T     T     T     T     T     T     T     T
     S  S  S  S  S  S  S  S  S  S  S  S  S  S  S  S
e|--15-11-15-11-15-11-15-11-15-11-15-11-15-11-15-11-|
B|--------------------------------------------------|
G|--------------------------------------------------|
D|--------------------------------------------------|
A|--------------------------------------------------|
E|--------------------------------------------------|


     E   E   E  E   E   E  E   E      E   E   E  E   E   E  E   E
e|--------------------------------|--------------------------------|
B|--------------------------------|--------------------------------|
G|--10----------8----------7------|--10----------8----------7------|
D|------10--10-----10--10-----10--|------10--10-----10--10-----10--|
A|--------------------------------|--------------------------------|
E|--------------------------------|--------------------------------|


     W                   E   E   E    E    E    E    E    E     W
e|--------------------|--------------------------------------|-------------------|
B|--------------------|--------------------------------------|-------------------|
G|--10----------------|--5S--7S--8S--10S--12S--13S--15S--20--|-------------------|
D|--------------------|--------------------------------------|-------------------|
A|--------------------|--------------------------------------|-------------------|
E|--------------------|--------------------------------------|-------------------| 


    W                   E   E   E  E   E   E  E   E      W
e|-------------------|-------------------------------|--------------------|
B|-------------------|-------------------------------|--------------------|
G|-------------------|--8----------7----------8------|--12----------------|
D|-------------------|-----10--10-----10--10-----10--|--------------------|
A|-------------------|-------------------------------|--------------------|
E|-------------------|-------------------------------|--------------------|


    S S  S  S S S S S S S  S  S S S S S    S S  S  S S S S S S S  S  S S S S S
e|--------------------------------------|--------------------------------------|
B|------------8-8-9-9-----------8-8-9-9-|------------8-8-9-9-----------8-8-9-9-|
G|--5-5-10-10---------5-5-10-10---------|--5-5-10-10---------5-5-10-10---------|
D|--------------------------------------|--------------------------------------|
A|--------------------------------------|--------------------------------------|
E|--------------------------------------|--------------------------------------|


    W                    W                    W
e|-------------------|--16b----------------|-------------------|
B|--6----------------|---------------------|-------------------|
G|-------------------|---------------------|-------------------|
D|-------------------|---------------------|-------------------|
A|-------------------|---------------------|-------------------|
E|-------------------|---------------------|-------------------| 


                                                              PM PM
    W                   E  Q    E  E  E  E  E     E  Q     E  E  E    Q
e|-------------------|-------------------------|---------------------------|
B|-------------------|-------------------------|--------------------8----|
G|-------------------|--8--8----7--8--7--------|--8--8--------7--8---------|
D|-------------------|-------------------8--5--|----------10---------------|
A|-------------------|-------------------------|---------------------------|
E|-------------------|-------------------------|---------------------------|


    E  Q    S S S S  S  S  S  S S S     E   E   E   H         E
e|----------------------------------|--------------13~--------L--|
B|----------------------------------|----------11----------------|
G|--8--8----7-7-8-8-10-10-12-12-8-8-|--12--12--------------------|
D|----------------------------------|----------------------------|
A|----------------------------------|----------------------------|
E|----------------------------------|----------------------------|


    E  E  E    Q    E  E   E         E   E   E   E  E    E   S   S  E
e|----------------------------|----------------------------------------|
B|--8------------------8--11--|--/16--11--16--18-----/20--18p-16-----|
G|-----8----------------------|------------------------------------15--|
D|--------8--8----8---------|----------------------------------------|
A|----------------------------|----------------------------------------|
E|----------------------------|----------------------------------------|


      E   E    E    E   E   E   E    E
e|--/18--18s--15S--18--18--15--18s--15--|
B|--------------------------------------|
G|--------------------------------------|
D|--------------------------------------|
A|--------------------------------------|
E|--------------------------------------|


     T     T     T     T     T     T     T
     S  S  S  S  S  S  S  S  S  S  S  S  S  S   E
e|-------------------------------------------------|
B|--20-18-20-18-20-18-20-18-20-16-21-18-20-16s-11--|
G|-------------------------------------------------|
D|-------------------------------------------------|
A|-------------------------------------------------|
E|-------------------------------------------------|


    E  Q    S S S S S S S S S S    E  Q    E   E    E    Q
e|------------------------------|-----------------------------|
B|------------------------------|-----------------------------|
G|--8--8----7-7-8-8-7-7---------|--8--8----7--/8--/10--/12----|
D|----------------------8-8-5-5-|-----------------------------|
A|------------------------------|-----------------------------|
E|------------------------------|-----------------------------|


     T    T    T   T   T   T   T   T
     S S  S S  S S S S S S S S S S S S      E   E   E   H         E
e|-------------------------------------|---------------13~--------L--|
B|--11-8-11-8-11-8-9-4-9-4-9-4-8-4-8-4-|-----------11----------------|
G|-------------------------------------|--/12--12--------------------|
D|-------------------------------------|-----------------------------|
A|-------------------------------------|-----------------------------|
E|-------------------------------------|-----------------------------|


    E  Q    S  S E   E  E  E     E  Q    S  S E   E     Q
e|----------------------------|------------------------------|
B|--8--8---------8------------|--8--8---------8--11--11----|
G|----------8-10----10--8-----|----------8-10----------------|
D|-------------------------8--|------------------------------|
A|----------------------------|------------------------------|
E|----------------------------|------------------------------|


     T     T     T     T     T     T     T     T
     S  S  S  S  S  S  S  S  S  S  S  S  S  S  S  S
e|--20-15-20-15-20-15-20-13-20-15-20-13-20-15-20-15-|
B|--------------------------------------------------|
G|--------------------------------------------------|
D|--------------------------------------------------|
A|--------------------------------------------------|
E|--------------------------------------------------|


      E   S  S   Q      E.    E.    E        Q.      H        E
e|-------------------------------------|-------------------------|
B|--/18--18-18-/20----/18---/16---/11--|--16~------------------|
G|-------------------------------------|-------------------------|
D|-------------------------------------|-------------------------|
A|-------------------------------------|-------------------------|
E|-------------------------------------|-------------------------| 


    W                    E  E  E  E  E  E  E  E      E  E  E  E  E  E  E  E
e|-------------------|---------------------------|---------------------------|
B|-------------------|---------------------------|---------------------------|
G|-------------------|--10--------8--------7-----|--10--------8--------7-----|
D|-------------------|------6--6-----6--6-----6--|------6--6-----6--6-----6--|
A|-------------------|---------------------------|---------------------------|
E|-------------------|---------------------------|---------------------------|


     T     T     T     T     T     T     T     T
     S  S  S  S  S  S  S  S  S  S  S  S  S  S  S  S
e|--15-11-15-11-15-11-15-11-15-11-15-11-15-11-15-11-|
B|--------------------------------------------------|
G|--------------------------------------------------|
D|--------------------------------------------------|
A|--------------------------------------------------|
E|--------------------------------------------------|


     T     T     T     T     T     T     T     T
     S  S  S  S  S  S  S  S  S  S  S  S  S  S  S  S
e|--15-11-15-11-15-11-15-11-15-11-15-11-15-11-15-11-|
B|--------------------------------------------------|
G|--------------------------------------------------|
D|--------------------------------------------------|
A|--------------------------------------------------|
E|--------------------------------------------------|


     E   E   E  E   E   E  E   E      E   E   E  E   E   E  E   E
e|--------------------------------|--------------------------------|
B|--------------------------------|--------------------------------|
G|--10----------8----------7------|--10----------8----------7------|
D|------10--10-----10--10-----10--|------10--10-----10--10-----10--|
A|--------------------------------|--------------------------------|
E|--------------------------------|--------------------------------|


     W                   W                   W
e|--------------------|-------------------|-------------------|
B|--------------------|-------------------|-------------------|
G|--10----------------|-------------------|-------------------|
D|--------------------|-------------------|-------------------|
A|--------------------|-------------------|-------------------|
E|--------------------|-------------------|-------------------| 


    W                   E   E   E  E   E   E  E   E     W
e|-------------------|-------------------------------|-------------------|
B|-------------------|-------------------------------|-------------------|
G|-------------------|--8----------7----------8------|-------------------|
D|-------------------|-----10--10-----10--10-----10--|-------------------|
A|-------------------|-------------------------------|-------------------|
E|-------------------|-------------------------------|-------------------|


    S S  S  S S S S S S S  S  S S S S S    S S  S  S S S S S S S  S  S S S S S
e|--------------------------------------|--------------------------------------|
B|------------8-8-9-9-----------8-8-9-9-|------------8-8-9-9-----------8-8-9-9-|
G|--5-5-10-10---------5-5-10-10---------|--5-5-10-10---------5-5-10-10---------|
D|--------------------------------------|--------------------------------------|
A|--------------------------------------|--------------------------------------|
E|--------------------------------------|--------------------------------------|


    W                    W                    W
e|-------------------|--16b----------------|-------------------|
B|--6----------------|---------------------|-------------------|
G|-------------------|---------------------|-------------------|
D|-------------------|---------------------|-------------------|
A|-------------------|---------------------|-------------------|
E|-------------------|---------------------|-------------------| 


                                                              PM PM
    W                   E  Q    E  E  E  E  E     E  Q     E  E  E    Q
e|-------------------|-------------------------|---------------------------|
B|-------------------|-------------------------|--------------------8----|
G|-------------------|--8--8----7--8--7--------|--8--8--------7--8---------|
D|-------------------|-------------------8--5--|----------10---------------|
A|-------------------|-------------------------|---------------------------|
E|-------------------|-------------------------|---------------------------|


    E  E  E  E  E   E   E  E      E   E  E   E  H
e|----------------------------|--------------------------|
B|----------------------------|--------------------------|
G|--8--8--L--7--8--10--12--8--|--12--10--8--10--L--------|
D|----------------------------|--------------------------|
A|----------------------------|--------------------------|
E|----------------------------|--------------------------|


    E  E  E    Q    E  E   E         E   E   E   E  E    E   S   S  E
e|----------------------------|----------------------------------------|
B|--8------------------8--11--|--/16--11--16--18-----/20--18p-16-----|
G|-----8----------------------|------------------------------------15--|
D|--------8--8----8---------|----------------------------------------|
A|----------------------------|----------------------------------------|
E|----------------------------|----------------------------------------|


     E   E  E   E   E  E   E  E     E  E    E  E  H
e|-------------------------------|-------------------------|
B|--11--11--8--11--11--8---------|--8----------------------|
G|------------------------10--8--|-----8-------7--L--------|
D|-------------------------------|--------8--------------|
A|-------------------------------|-------------------------|
E|-------------------------------|-------------------------|


    E  E  E  E  E  E   E  E     E  E  E  E  E   E    Q
e|---------------------------|----------------------------|
B|---------------------------|---------------------8----|
G|-----7--8--7--8--7---------|-----7--8--7--8--10---------|
D|--------------------10--5--|----------------------------|
A|---------------------------|----------------------------|
E|---------------------------|----------------------------|


     T    T    T    T     T     T     T    T
     S S  S S  S S  S  S  S  S  S  S  S S  S S      E   E   E   H         E
e|---------------------------------------------|---------------13~--------L--|
B|--11-8-11-8-11-8-----------------------------|-----------11----------------|
G|-----------------13-10-13-10-13-10-12-8-12-8-|--/12--12--------------------|
D|---------------------------------------------|-----------------------------|
A|---------------------------------------------|-----------------------------|
E|---------------------------------------------|-----------------------------|


     E   E  E   S  S  E   E   E   E      E   E  E   S  S  E   E   Q
e|-----------------------------------|---------------------------------|
B|-----------------------------------|---------------------------13----|
G|--12--12--L--12-10-12--10----------|--12--12--L--10-12-10--12--------|
D|---------------------------13--10--|---------------------------------|
A|-----------------------------------|---------------------------------|
E|-----------------------------------|---------------------------------|


     S   S  S  S  S   S  S   S  S  S  S   S  S   S  S  S
e|-------------------------------------------------------|
B|--20p-16----16-18p-15-16p-13----13-16p-13-15p-11----11-|
G|---------17------------------13------------------12----|
D|-------------------------------------------------------|
A|-------------------------------------------------------|
E|-------------------------------------------------------|


      E   S  S   Q      E.    E.    E        Q.      H        E
e|-------------------------------------|-------------------------|
B|--/18--18-18-/20----/18---/16---/11--|--16~------------------|
G|-------------------------------------|-------------------------|
D|-------------------------------------|-------------------------|
A|-------------------------------------|-------------------------|
E|-------------------------------------|-------------------------|


    W                   H        H           H        H
e|-------------------|--------------------|--------------------|
B|-------------------|-----------8--------|--6--------4--------|
G|-------------------|--------------------|--------------------|
D|-------------------|--------------------|--------------------|
A|-------------------|--------------------|--------------------|
E|-------------------|--------------------|--------------------|


    H        H           H        H           H        H
e|-----------6--------|--4-----------------|--------------------|
B|--------------------|-----------8--------|-----------8--------|
G|--------------------|--------------------|--------------------|
D|--------------------|--------------------|--------------------|
A|--------------------|--------------------|--------------------|
E|--------------------|--------------------|--------------------|


    Q.     Q.     Q       W                   H.           Q
e|---------------------|-------------------|--------------------|
B|--6------8------6----|--4----------------|--L-----------------|
G|---------------------|-------------------|--------------------|
D|---------------------|-------------------|--------------------|
A|---------------------|-------------------|--------------------|
E|---------------------|-------------------|--------------------|


    H        H           H        H           H        H
e|--------------------|--------------------|-----------6--------|
B|-----------8--------|--6--------4--------|--------------------|
G|--------------------|--------------------|--------------------|
D|--------------------|--------------------|--------------------|
A|--------------------|--------------------|--------------------|
E|--------------------|--------------------|--------------------|


    H        H           H        H           Q.     Q.     Q
e|--4-----------------|--------------------|---------------------|
B|-----------8--------|-----------8--------|--6------8------6----|
G|--------------------|--------------------|---------------------|
D|--------------------|--------------------|---------------------|
A|--------------------|--------------------|---------------------|
E|--------------------|--------------------|---------------------|


    W                   H.           Q       W
e|-------------------|--------------------|-------------------|
B|--4----------------|--L-----------------|-------------------|
G|-------------------|--------------------|-------------------|
D|-------------------|--------------------|-------------------|
A|-------------------|--------------------|-------------------|
E|-------------------|--------------------|-------------------|


    S   S  S  S  S  S S   S  S   S  S  S  S  S  S  S
e|---------------------------------------------------|
B|---------------------------------------------------|
G|---------------------------------------------------|
D|--8h-10-10-10-10-10-8h-10-13p-10-10-10-10-10-10-10-|
A|---------------------------------------------------|
E|---------------------------------------------------|


     S  S  S  S  S  S S S  S  S  S S S S  S  S
e|---------------------------------------------|
B|---------------------------------------------|
G|--12-12-12-10-10-10-8-8-10-10-10-8-8-8-------|
D|---------------------------------------12-12-|
A|---------------------------------------------|
E|---------------------------------------------|


    S   S  S  S  S  S S   S  S   S  S  S  S  S  S  S
e|---------------------------------------------------|
B|---------------------------------------------------|
G|---------------------------------------------------|
D|--8h-10-10-10-10-10-8h-10-13p-10-10-10-10-10-10-10-|
A|---------------------------------------------------|
E|---------------------------------------------------|


     S  S  S  S  S  S S S  S  S  S S S S  S  S
e|---------------------------------------------|
B|---------------------------------------------|
G|--12-12-12-10-10-10-8-8-10-10-10-8-8-8-------|
D|---------------------------------------12-12-|
A|---------------------------------------------|
E|---------------------------------------------|


    S   S  S  S  S  S S   S  S   S  S  S  S  S  S  S
e|---------------------------------------------------|
B|---------------------------------------------------|
G|---------------------------------------------------|
D|--8h-10-10-10-10-10-8h-10-13p-10-10-10-10-10-10-10-|
A|---------------------------------------------------|
E|---------------------------------------------------|


     S  S  S  S  S  S S S  S  S  S S S S  S  S
e|---------------------------------------------|
B|---------------------------------------------|
G|--12-12-12-10-10-10-8-8-10-10-10-8-8-8-------|
D|---------------------------------------12-12-|
A|---------------------------------------------|
E|---------------------------------------------|


    S   S  S  S  S  S S   S  S   S  S  S  S  S  S  S
e|---------------------------------------------------|
B|---------------------------------------------------|
G|---------------------------------------------------|
D|--8h-10-10-10-10-10-8h-10-13p-10-10-10-10-10-10-10-|
A|---------------------------------------------------|
E|---------------------------------------------------|


     S  S  S  S  S  S S S  S  S  S S S S  S  S    W
e|---------------------------------------------|-------------------|
B|---------------------------------------------|-------------------|
G|--12-12-12-10-10-10-8-8-10-10-10-8-8-8-------|-------------------|
D|---------------------------------------12-12-|-------------------|
A|---------------------------------------------|-------------------|
E|---------------------------------------------|-------------------|


    W                   S  S S  S  S   S  S   S  S   S  S   S S  S S  S
e|-------------------|--------------------------------------------------|
B|-------------------|--6s-8-6s-8-11s-15-11s-15-15s-16-15s-16-6s-8-6s-8-|
G|-------------------|--------------------------------------------------|
D|-------------------|--------------------------------------------------|
A|-------------------|--------------------------------------------------|
E|-------------------|--------------------------------------------------| 


    W                   S   S  S  S  S  S S   S  S   S  S  S  S  S  S  S
e|-------------------|---------------------------------------------------|
B|-------------------|---------------------------------------------------|
G|-------------------|---------------------------------------------------|
D|-------------------|--8h-10-10-10-10-10-8h-10-13p-10-10-10-10-10-10-10-|
A|-------------------|---------------------------------------------------|
E|-------------------|---------------------------------------------------|


     S  S  S  S  S  S S S  S  S  S S S S  S  S
e|---------------------------------------------|
B|---------------------------------------------|
G|--12-12-12-10-10-10-8-8-10-10-10-8-8-8-------|
D|---------------------------------------12-12-|
A|---------------------------------------------|
E|---------------------------------------------|


    S   S  S  S  S  S S   S  S   S  S  S  S  S  S  S
e|---------------------------------------------------|
B|---------------------------------------------------|
G|---------------------------------------------------|
D|--8h-10-10-10-10-10-8h-10-13p-10-10-10-10-10-10-10-|
A|---------------------------------------------------|
E|---------------------------------------------------|


     S  S  S  S  S  S S S  S  S  S S S S  S  S
e|---------------------------------------------|
B|---------------------------------------------|
G|--12-12-12-10-10-10-8-8-10-10-10-8-8-8-------|
D|---------------------------------------12-12-|
A|---------------------------------------------|
E|---------------------------------------------|


    S   S  S  S  S  S S   S  S   S  S  S  S  S  S  S
e|---------------------------------------------------|
B|---------------------------------------------------|
G|---------------------------------------------------|
D|--8h-10-10-10-10-10-8h-10-13p-10-10-10-10-10-10-10-|
A|---------------------------------------------------|
E|---------------------------------------------------|


     S  S  S  S  S  S S S  S  S  S S S S  S  S
e|---------------------------------------------|
B|---------------------------------------------|
G|--12-12-12-10-10-10-8-8-10-10-10-8-8-8-------|
D|---------------------------------------12-12-|
A|---------------------------------------------|
E|---------------------------------------------|


    S   S  S  S  S  S S   S  S   S  S  S  S  S  S  S
e|---------------------------------------------------|
B|---------------------------------------------------|
G|---------------------------------------------------|
D|--8h-10-10-10-10-10-8h-10-13p-10-10-10-10-10-10-10-|
A|---------------------------------------------------|
E|---------------------------------------------------|


     S  S  S  S  S  S S S  S  S  S S S S  S  S
e|---------------------------------------------|
B|---------------------------------------------|
G|--12-12-12-10-10-10-8-8-10-10-10-8-8-8-------|
D|---------------------------------------12-12-|
A|---------------------------------------------|
E|---------------------------------------------|


    S S S S    E  S S E   E  E    E     E.  E.   E    H
e|-----------------------------------|---------------------------|
B|-----------------------------------|---------------------------|
G|-----------------------------------|---------------------------|
D|--6-6-6-6-10--6-6-8---------8--|--------------8br--------|
A|-----------------------10--6-------|--6---8---10---------------|
E|-----------------------------------|---------------------------|


    W                   W                    E.    E.  E  E.    E.  E
e|-------------------|-------------------|-----------------------------|
B|-------------------|-------------------|-------8-------------------|
G|-------------------|-------------------|--/8---------8--7---8---7--|
D|-------------------|-------------------|-----------------------------|
A|-------------------|-------------------|-----------------------------|
E|-------------------|-------------------|-----------------------------|


     S   S  S   S  Q     S  S  S  Q    S    W                   W
e|---------------------------------------|-------------------|-------------------|
B|----------------15----15-13-11-13------|-------------------|-------------------|
G|---------------------------------------|-------------------|-------------------|
D|--10s-12-10s-12------------------------|-------------------|-------------------|
A|---------------------------------------|-------------------|-------------------|
E|---------------------------------------|-------------------|-------------------|


     E   S  S  E   E   E   E   E   E      E   S  S  E   E   E   E   Q
e|------------------------------------|----------------------------------|
B|------------------------------------|------------------------11--------|
G|--12--12-12-12--10--------------10--|--12--12-12-12--10----------12----|
D|--------------------13--10--13------|--------------------13------------|
A|------------------------------------|----------------------------------|
E|------------------------------------|----------------------------------|


     E   S  S  E   E   E   E   E   E
e|------------------------------------|
B|------------------------------------|
G|--12--12-12-12--10--------------10--|
D|--------------------13--10--13------|
A|------------------------------------|
E|------------------------------------|


     S   S   S  S  S  S  S  S  S   S  S  S    Q
e|-------------------------------------------------|
B|-------------------------------------------------|
G|--10h-12p-10----------10-12-15p-12-10-12-12----|
D|-------------13-10-13----------------------------|
A|-------------------------------------------------|
E|-------------------------------------------------|


     E   S  S  E   E   E   E   E   E      E   S  S  E   E   E   E   Q
e|------------------------------------|----------------------------------|
B|------------------------------------|------------------------15--------|
G|--15--15-15-15--13--12------12--13--|--15--15-15-15--13--12------15----|
D|------------------------13----------|----------------------------------|
A|------------------------------------|----------------------------------|
E|------------------------------------|----------------------------------|


     E   S  S  E   E   E   E   E   E      S  S  S  S  S  S  S  S E   E   E   E
e|------------------------------------|--------------------------8--11--13--15--|
B|------------------------------------|-----------------------------------------|
G|--15--15-15-15--13--12------12--13--|--15-13-12-13-12-13-15-13-5---8--10--12--|
D|------------------------13----------|-----------------------------------------|
A|------------------------------------|-----------------------------------------|
E|------------------------------------|-----------------------------------------|


     S  S  S  S  S  S  S  S  E   E   E  E     W
e|--------------------------15--13--11--8--|-------------------|
B|-----------------------------------------|-------------------|
G|--15-13-12-13-12-13-12-13-12--10---8--5--|-------------------|
D|-----------------------------------------|-------------------|
A|-----------------------------------------|-------------------|
E|-----------------------------------------|-------------------| 


     Q     E    Q     E   E   E      E    E   E    E   E    E    Q
e|--15----13S--20----13--15--13--|--15S--13--------------------/11----|
B|-------------------------------|-----------16S--15------------------|
G|-------------------------------|--------------------13S--12---------|
D|-------------------------------|------------------------------------|
A|-------------------------------|------------------------------------|
E|-------------------------------|------------------------------------|


     E   E   E    E   E   E    Q           E     E   E   E   E    E   Q
e|----------------------------------|--------------------------------------|
B|--23--23s--8--/23--23--22s--20----|--/15--15--\3--16--15s--20--18----|
G|----------------------------------|--------------------------------------|
D|----------------------------------|--------------------------------------|
A|----------------------------------|--------------------------------------|
E|----------------------------------|--------------------------------------| 


     T     T     T             T     T     T
     S  S  S  S  S   S  S  S   S  S  S  S  S   S  S  S
e|------------------------------------------------------|
B|--20-16-20-16-20s-16-15-16s-20-16-20-16-20s-16-15-16s-|
G|------------------------------------------------------|
D|------------------------------------------------------|
A|------------------------------------------------------|
E|------------------------------------------------------|


     T     T     T                     T
     S  S  S  S  S   S  S  S  Q        Q
e|------------------------------------------|
B|--20-16-20-16-20s-16-15-16-18b----20----|
G|------------------------------------------|
D|------------------------------------------|
A|------------------------------------------|
E|------------------------------------------|


     S. S. S  S  S  S  S  S  S  S  S  S  S  S  S      E   Q     E   E   E   Q
e|-----------------------------------------------|-------------------------------|
B|-----------------------------------11-13-15-16-|--/18--18----20--18------------|
G|-----------------------------12-14-------------|---------------------20--17----|
D|-----------------12-13-12-13-------------------|-------------------------------|
A|-----------11-13-------------------------------|-------------------------------|
E|--11-13-15-------------------------------------|-------------------------------|

  
     T       T       T       T       T       T       T       T
     |--3-|  |--3-|  |--3-|  |--3-|  |--3-|  |--3-|  |--3-|  |--3-|
     S  S S  S S  S  S  S S  S S  S  S  S S  S S  S  S  S S  S S  S
e|------------------------------------------------------------------|
B|------------------------------------------------------------------|
G|--17-12-8-17-8-12-17-12-8-17-8-12-17-12-8-17-8-12-17-12-8-17-8-12-|
D|------------------------------------------------------------------|
A|------------------------------------------------------------------|
E|------------------------------------------------------------------|


     S  S  S  S  E   E    E    E   E   E
e|----------------------------------------|
B|--20-20-20-20-18--16s--18s--16------16--|
G|--------------------------------19------|
D|----------------------------------------|
A|----------------------------------------|
E|----------------------------------------|


     T    T    T    T    T    T    T    T    T    T    T    T    T    T    T    T
     T T  T T  T T  T T  T T  T T  T T  T T  T T  T T  T T  T T  T T  T T  T T  T
e|--------------------------------------------------------------------------------|
B|--------------------------------------------------------------------------------|
G|--17-8-17-8-15-8-15-8-17-8-17-8-13-8-13-8-17-8-17-8-15-8-15-8-17-8-17-8-12-8-12-|
D|--------------------------------------------------------------------------------|
A|--------------------------------------------------------------------------------|
E|--------------------------------------------------------------------------------|


     S   S  S  S  S  S  S  S  S  S  S  S  E   E
e|---------------------------------------20------|
B|--21p-18----------------18-20-18-20-21-----16--|
G|---------17----------17------------------------|
D|------------18----18---------------------------|
A|---------------20------------------------------|
E|-----------------------------------------------|


     S  S  S  S  S  S  S  S  H
e|---------------------------------------|
B|-----18----18----23----23-23pbr--------|
G|--17----17----19----19-----------------|
D|---------------------------------------|
A|---------------------------------------|
E|---------------------------------------|


     S  S  S  S  S  S  S  S  H               W
e|----------------------------------------|-------------------|
B|-----------------------11-20pbr~--------|-------------------|
G|--------------10-12-14------------------|-------------------|
D|-----10-12-13---------------------------|-------------------|
A|--13------------------------------------|-------------------|
E|----------------------------------------|-------------------| 


    Q     Q     E  E   E   E      Q.        Q     Q     E
e|----------------------------|----------------------------|
B|-------16----18-----20--18--|--20br------20----18----16--|
G|----------------------------|----------------------------|
D|----------------------------|----------------------------|
A|----------------------------|----------------------------|
E|----------------------------|----------------------------|


     E    E   E   E   E   E   E   E     Q     E   E   E.     S  Q
e|--13p--11--------------------------|-------------------------------|
B|-----------11--------------11--13--|--L----15--13--15br---13-------|
G|---------------12------12----------|-------------------------12----|
D|-------------------13--------------|-------------------------------|
A|-----------------------------------|-------------------------------|
E|-----------------------------------|-------------------------------|


     E   E   E   E  E   E   E   E      E   E   E   E   S   S  S  S  Q
e|---------------------------------|-------------------------------15----|
B|------20-------------16----------|----------13--15--16p-15----15-------|
G|--17------17--13--L------13--12--|--10--12-----------------17----------|
D|---------------------------------|-------------------------------------|
A|---------------------------------|-------------------------------------|
E|---------------------------------|-------------------------------------|


       whammy bar
       Q          Q        Q        Q         Q.       H          E
e|----------------------------------------|--10b------13br--------L--|
B|----------------------------------------|--------------------------|
G|--15b---------------------------------|--------------------------|
D|-------------15b----13b-------------|--------------------------|
A|-------------------------------15b----|--------------------------|
E|----------------------------------------|--------------------------| 


      Q.      Q     E.  S  E      E   E  E     Q      Q     E
e|----------------------------|--------------------------------|
B|--/13------13---------------|--13--15-----16~----13----11--|
G|-----------------13-----13--|--------------------------------|
D|----------------------------|--------------------------------|
A|----------------------------|--------------------------------|
E|----------------------------|--------------------------------|


     S   S  S  S  S   S   S  S  H             E   E   E     E   H
e|----------------------------------------|------------------------------|
B|----------------------------------------|------------------------------|
G|--13p-12---------------------13b--------|------------------------------|
D|---------13-10-12h-13p-12-10------------|--12------13--10~--L--------|
A|----------------------------------------|------15----------------------|
E|----------------------------------------|------------------------------|


      E   E   E   E   E   E   E   E      E   E  E   E  E   E     Q
e|-----------------------------------|--------------------------------|
B|--/16--16--13--16--16--13--16--13--|--16--18-----16-----13--13----|
G|-----------------------------------|--------------------------------|
D|-----------------------------------|--------------------------------|
A|-----------------------------------|--------------------------------|
E|-----------------------------------|--------------------------------|


     S  S  S  S  S  S  S  S  S  S  S  S  S  S  S  S
e|--------------------------------------------------|
B|--------------------------------------------------|
G|--------------------------------------------------|
D|--------------13-------13-15----13-15-17-13-15-17-|
A|--------15-17----15-17-------17-------------------|
E|--17-18-------------------------------------------|


     T     T                 T     T
     S  S  S  S  S  S  S  S  S  S  S  S  S  S  S  S
e|--------------------------------------------------|
B|--------------16-15-------------------20-16-------|
G|--17-13-19-13-------17-13-19-15-19-15-------17-13-|
D|--------------------------------------------------|
A|--------------------------------------------------|
E|--------------------------------------------------|


    S S  S  S  S  S  S  S  S  S  S  S  S  S  S  S
e|------------------------------------------------|
B|------------------------------------------------|
G|--8-8-------10-10-------12-12-------10-10-------|
D|------10-10-------10-10-------10-10-------10-10-|
A|------------------------------------------------|
E|------------------------------------------------|


   T      T      T      T      T      T      T      T
   |-3-|  |-3-|  |-3-|  |-3-|  |-3-|  |-3-|  |-3-|  |-3-|
   S S S  S S S  S S S  S S S  S S S  S S S  S S S  S S S
e|----------------------------------------------------------|
B|----------------------------------------------------------|
G|--13-8-5-13-8-5-13-8-5-13-8-5-13-8-5-13-8-5-13-8-5-13-8-5-|
D|----------------------------------------------------------|
A|----------------------------------------------------------|
E|----------------------------------------------------------|


     S  S  S  S  S  S  S  S  S  S  S  S  S  S  S  S
e|--------------------------------------------------|
B|-----------13-15-16-15-13-15-13-------------------|
G|--13-12-13----------------------13-12----------12-|
D|--------------------------------------13-12-13----|
A|--------------------------------------------------|
E|--------------------------------------------------|


     S  S  S  S  S  S  S  S  S  S  S  S    Q         E   E   E   E  E   Q     E
e|----------------------------------------------|--------------------------------|
B|----------------------------------------------|--/13--11--13--11---------------|
G|--13-13-12----12-12---------------------------|----------------------12----12--|
D|-----------13-------13-13-12-13-12------------|--------------------------------|
A|-----------------------------------15-15----|--------------------------------|
E|----------------------------------------------|--------------------------------|


       Q.         E   E   E     Q
e|------------------------------------|
B|--11brb---------------------------|
G|------------------------------------|
D|---------------13--12--10--10~----|
A|------------------------------------|
E|------------------------------------|


                             T  W  T  W  T  W  T  W
     S  S  S  S  S  S  S  S  S  S  S  S  S  S  S  S
e|--------------------------------------------------|
B|--------------------------------------------------|
G|--------------------------------------------------|
D|--------------13-15-17-18-18-13-18-13-18-13-18-13-|
A|-----13-15-17-------------------------------------|
E|--15----------------------------------------------|


   whammy bar dive
   T                     T        T        T        T        T        T        T
   |---------3--------|  |--3--|  |--3--|  |--3--|  |--3--|  |--3--|  |--3--|  |
   S               S  S  S  S  S  S  S  S  S  S  S  S  S  S  S  S  S  S  S  S  S
e|---------------------------------------------------------------------------------|
B|---------------------------------------------------------------------------------|
G|--17--------------13-12-17-13-12-17-13-12-17-13-12-17-13-12-17-13-12-17-13-12-17-|
D|---------------------------------------------------------------------------------|
A|---------------------------------------------------------------------------------|
E|---------------------------------------------------------------------------------| 


              |--3--| |-3-| |-3-| |-3-|
    H         S  S  S S S S S S S S S S    W                   W
e|--------------------------------------|-------------------|-------------------|
B|--------------------------------------|-------------------|-------------------|
G|-----------12-11-10-9-8-7-6-5-4-3-2-1-|-------------------|-------------------|
D|--------------------------------------|-------------------|-------------------|
A|--------------------------------------|-------------------|-------------------|
E|--------------------------------------|-------------------|-------------------| 


     S  S  S  S S S  S  S  S  S S S  S  S S S
e|--------------------------------------------|
B|--13-13-13-13-8-8-13-13-13-13-8-8-13-13-8-8-|
G|--------------------------------------------|
D|--------------------------------------------|
A|--------------------------------------------|
E|--------------------------------------------|


     S  S  S  S S S  S  S  S  S S S  S  S S S
e|--------------------------------------------|
B|--13-13-13-13-8-8-13-13-13-13-8-8-13-13-8-8-|
G|--------------------------------------------|
D|--------------------------------------------|
A|--------------------------------------------|
E|--------------------------------------------|


     S  S  S  S  S  S  S  S  S  S  S  S  S  S  S  S
e|--------------------------------------------------|
B|--16-16-16-16-13-13-16-16-16-16-13-13-16-16-13-13-|
G|--------------------------------------------------|
D|--------------------------------------------------|
A|--------------------------------------------------|
E|--------------------------------------------------|


     S  S  S  S  S  S  S  S  S  S  S  S  S  S  S  S
e|--------------------------------------------------|
B|--16-16-16-16-13-13-16-16-16-16-13-13-16-16-13-13-|
G|--------------------------------------------------|
D|--------------------------------------------------|
A|--------------------------------------------------|
E|--------------------------------------------------|


     S  S  S  S S S  S  S  S  S S S  S  S S S
e|--------------------------------------------|
B|--13-13-13-13-9-9-13-13-13-13-9-9-13-13-9-9-|
G|--------------------------------------------|
D|--------------------------------------------|
A|--------------------------------------------|
E|--------------------------------------------|


     S  S  S  S S S  S  S  S  S S S  S  S S S
e|--------------------------------------------|
B|--13-13-13-13-9-9-13-13-13-13-9-9-13-13-9-9-|
G|--------------------------------------------|
D|--------------------------------------------|
A|--------------------------------------------|
E|--------------------------------------------|


     S  S  S  S S S  S  S  S  S S S  S  S S S
e|--------------------------------------------|
B|--13-13-13-13-8-8-13-13-13-13-8-8-13-13-8-8-|
G|--------------------------------------------|
D|--------------------------------------------|
A|--------------------------------------------|
E|--------------------------------------------|


    S S  S S  S S S S S S S S S S S S
e|----------------------6-------------|
B|---------8----8-9-8-9---9-8-9-8-----|
G|--7-8-10---10-------------------8-7-|
D|------------------------------------|
A|------------------------------------|
E|------------------------------------|


     S  S  S  S S S  S  S  S  S S S  S  S S S
e|--------------------------------------------|
B|--13-13-13-13-8-8-13-13-13-13-8-8-13-13-8-8-|
G|--------------------------------------------|
D|--------------------------------------------|
A|--------------------------------------------|
E|--------------------------------------------|


     S  S  S  S S S  S  S  S  S S S  S  S S S
e|--------------------------------------------|
B|--13-13-13-13-8-8-13-13-13-13-8-8-13-13-8-8-|
G|--------------------------------------------|
D|--------------------------------------------|
A|--------------------------------------------|
E|--------------------------------------------|


     S  S  S  S  S  S  S  S  S  S  S  S  S  S  S  S
e|--------------------------------------------------|
B|--16-16-16-16-13-13-16-16-16-16-13-13-16-16-13-13-|
G|--------------------------------------------------|
D|--------------------------------------------------|
A|--------------------------------------------------|
E|--------------------------------------------------|


     S  S  S  S  S  S  S  S  S  S  S  S  S  S  S  S
e|--------------------------------------------------|
B|--16-16-16-16-13-13-16-16-16-16-13-13-16-16-13-13-|
G|--------------------------------------------------|
D|--------------------------------------------------|
A|--------------------------------------------------|
E|--------------------------------------------------|


     S  S  S  S S S  S  S  S  S S S  S  S S S
e|--------------------------------------------|
B|--13-13-13-13-9-9-13-13-13-13-9-9-13-13-9-9-|
G|--------------------------------------------|
D|--------------------------------------------|
A|--------------------------------------------|
E|--------------------------------------------|


     S  S  S  S S S  S  S  S  S S S  S  S S S    W
e|--------------------------------------------|-------------------|
B|--13-13-13-13-9-9-13-13-13-13-9-9-13-13-9-9-|-------------------|
G|--------------------------------------------|-------------------|
D|--------------------------------------------|-------------------|
A|--------------------------------------------|-------------------|
E|--------------------------------------------|-------------------|


                         PM  PM  PM  PM  PM  PM  PM  PM
    W                    E   E   E   E   E   E   E   E
e|-------------------|----------------------------------|
B|-------------------|----------------------------------|
G|-------------------|--12--15--15--12--15--15--12--15--|
D|-------------------|----------------------------------|
A|-------------------|--10--13--13--10--13--13--10--13--|
E|-------------------|----------------------------------|


     PM  PM  PM  PM  PM  PM  PM  PM     PM  PM  PM  PM  PM  PM  PM  PM
     E   E   E   E   E   E   E   E      E   E   E   E   E   E   E   E
e|----------------------------------|----------------------------------|
B|----------------------------------|----------------------------------|
G|--15--12--12--15--15--12----------|--10--12--12--10--12--12--10--12--|
D|--------------------------15--13--|----------------------------------|
A|--13--10--10--13--13--10----------|---8--10--10---8--10--10---8--10--|
E|--------------------------13--11--|----------------------------------|


     PM  PM  PM  PM  PM  PM  PM  PM
     E   E   E   E   E   E   E   E      E   E   E   E  E   E  E   E
e|----------------------------------|--------------------------------|
B|----------------------------------|--------------------------------|
G|--12--10--12--12--13--12----------|--------------------------------|
D|--------------------------15--13--|--------------------------------|
A|--10---8--10--10--11--10----------|--15--15--15--15-----15-----15--|
E|--------------------------13--11--|--------------------------------|


    E   E  E   E   E   E   E  E
e|-------------------------------|
B|-------------------------------|
G|-------------------------------|
D|-------------------------------|
A|-----15-----15--15--15--15-----|
E|-------------------------------|


     S   S   S   S   S   S   S   S   S   S   S   S   S   S   S   S
e|-----------------------------------------------------------------|
B|-----------------------------------------------------------------|
G|--15p-12h-15p-12h-15p-12h-15p-12h-15p-12h-15p-12h-15p-12h-15p-12-|
D|-----------------------------------------------------------------|
A|-----------------------------------------------------------------|
E|-----------------------------------------------------------------|


     S   S   S   S   S   S   S   S   S   S   S   S   S   S   S   S
e|-----------------------------------------------------------------|
B|-----------------------------------------------------------------|
G|--15p-12h-15p-12h-15p-12h-15p-12h-15p-12h-15p-12h-15p-12h-15p-12-|
D|-----------------------------------------------------------------|
A|-----------------------------------------------------------------|
E|-----------------------------------------------------------------|


     S   S   S   S   S   S   S   S   S   S   S   S   S   S   S   S
e|-----------------------------------------------------------------|
B|-----------------------------------------------------------------|
G|--15p-12h-15p-12h-15p-12h-15p-12h-15p-12h-15p-12h-15p-12h-15p-12-|
D|-----------------------------------------------------------------|
A|-----------------------------------------------------------------|
E|-----------------------------------------------------------------|


     S   S   S   S   S   S   S   S   S   S   S   S   S   S   S   S
e|-----------------------------------------------------------------|
B|-----------------------------------------------------------------|
G|--15p-12h-15p-12h-15p-12h-15p-12h-15p-12h-15p-12h-15p-12h-15p-12-|
D|-----------------------------------------------------------------|
A|-----------------------------------------------------------------|
E|-----------------------------------------------------------------|


     S   S   S   S   S   S   S   S   S   S   S   S   S   S   S   S
e|-----------------------------------------------------------------|
B|-----------------------------------------------------------------|
G|--15p-12h-15p-12h-15p-12h-15p-12h-15p-12h-15p-12h-15p-12h-15p-12-|
D|-----------------------------------------------------------------|
A|-----------------------------------------------------------------|
E|-----------------------------------------------------------------|


     S   S   S   S   S   S   S   S   S   S   S   S   S   S   S   S
e|-----------------------------------------------------------------|
B|-----------------------------------------------------------------|
G|--15p-12h-15p-12h-15p-12h-15p-12h-15p-12h-15p-12h-15p-12h-15p-12-|
D|-----------------------------------------------------------------|
A|-----------------------------------------------------------------|
E|-----------------------------------------------------------------|


     PM  PM  PM  PM  PM  PM  PM  PM
     E   E   E   E   E   E   E   E      H         H
e|--13------------------------------|-------------------------|
B|------16--15--13--16--15--13------|--16b--------------------|
G|------------------------------15--|-------------------------|
D|----------------------------------|-------------8pbr--------|
A|----------------------------------|-------------------------|
E|----------------------------------|-------------------------|


                       |-----3-----|
   S   S   E   E   E   Q     Q     Q          Q.      H        E
e|----------------------------------------|-------------------------||
B|--13h-15p-13----------------------------|-------------------------||
G|--------------13--12--------12----13----|--12~------------------||
D|----------------------13----------------|-------------------------||
A|----------------------------------------|-------------------------||
E|----------------------------------------|-------------------------|| 


[Rhythm guitar 1&2]

     Q    H        Q       W                   Q    H        Q
e||---------------------|-------------------|---------------------|
B||---------------------|-------------------|---------------------|
G||--5------------------|-------------------|--5------------------|
D||--5------------------|-------------------|--5------------------|
A||--3------------------|-------------------|--3------------------|
E||---------------------|-------------------|---------------------|


    W                   W                   W
e|-------------------|-------------------|-------------------|
B|-------------------|-------------------|-------------------|
G|-------------------|--3----------------|--L----------------|
D|-------------------|--3----------------|--L----------------|
A|-------------------|--1----------------|--L----------------|
E|-------------------|-------------------|-------------------|


    Q    H        Q       W                   Q    H        Q
e|---------------------|-------------------|---------------------|
B|---------------------|-------------------|---------------------|
G|---------------------|-------------------|--5------------------|
D|--6------------------|--5----------------|--5------------------|
A|--6------------------|--5----------------|--3------------------|
E|--4------------------|--3----------------|---------------------|


    W                   Q    H        Q       W
e|-------------------|---------------------|-------------------|
B|-------------------|---------------------|-------------------|
G|-------------------|--5------------------|-------------------|
D|-------------------|--5------------------|-------------------|
A|-------------------|--3------------------|-------------------|
E|-------------------|---------------------|-------------------|


    W                   W                   Q    H        Q
e|-------------------|-------------------|---------------------|
B|-------------------|-------------------|---------------------|
G|-------------------|-------------------|---------------------|
D|--6----------------|--L----------------|--5------------------|
A|--6----------------|--L----------------|--5------------------|
E|--4----------------|--L----------------|--3------------------|


    E.  S E.  S E.  Q    S    E  S S S S S S S S S S S S S S
e|-------------------------|---------------------------------|
B|-------------------------|---------------------------------|
G|-------------------------|---------------------------------|
D|--5-----5-----5----------|--5------------------------------|
A|--5-----5-----5----------|--3--3-3-3-3-3-3-3-3-3-3-3-3-3-3-|
E|--3-----3-----3----------|---------------------------------|


    S S S S S S S S S S S S S S S S    E  S S S S S S S S S S S S S S
e|----------------------------------|---------------------------------|
B|----------------------------------|---------------------------------|
G|----------------------------------|---------------------------------|
D|----------------------------------|---------------------------------|
A|--3-3-3-3-3-3-3-3-3-3-3-3-3-3-3-3-|--6------------------------------|
E|----------------------------------|--4--4-4-4-4-4-4-4-4-4-4-4-4-4-4-|


    S S S S S S S S S S S S S S S S    E  S S S S S S S S S S S S S S
e|----------------------------------|---------------------------------|
B|----------------------------------|---------------------------------|
G|----------------------------------|---------------------------------|
D|----------------------------------|---------------------------------|
A|----------------------------------|--3------------------------------|
E|--4-4-4-4-4-4-4-4-4-4-4-4-4-4-4-4-|--1--1-1-1-1-1-1-1-1-1-1-1-1-1-1-|


    S S S S S S S S S S S S S S S S    E  S S S S S S S S S S S S S S
e|----------------------------------|---------------------------------|
B|----------------------------------|---------------------------------|
G|----------------------------------|---------------------------------|
D|----------------------------------|---------------------------------|
A|----------------------------------|--6------------------------------|
E|--1-1-1-1-1-1-1-1-1-1-1-1-1-1-1-1-|--4--4-4-4-4-4-4-4-4-4-4-4-4-4-4-|


    S S S S S S S S S S S S S S S S    E  S S S S S S S S S S S S S S
e|----------------------------------|---------------------------------|
B|----------------------------------|---------------------------------|
G|----------------------------------|---------------------------------|
D|----------------------------------|--5------------------------------|
A|----------------------------------|--3--3-3-3-3-3-3-3-3-3-3-3-3-3-3-|
E|--4-4-4-4-4-4-4-4-4-4-4-4-4-4-4-4-|---------------------------------|


    S S S S S S S S S S S S S S S S    E  S S S S S S S S S S S S S S
e|----------------------------------|---------------------------------|
B|----------------------------------|---------------------------------|
G|----------------------------------|---------------------------------|
D|----------------------------------|---------------------------------|
A|--3-3-3-3-3-3-3-3-3-3-3-3-3-3-3-3-|--6------------------------------|
E|----------------------------------|--4--4-4-4-4-4-4-4-4-4-4-4-4-4-4-|


    S S S S S S S S S S S S S S S S    E  S S S S S S S S S S S S S S
e|----------------------------------|---------------------------------|
B|----------------------------------|---------------------------------|
G|----------------------------------|---------------------------------|
D|----------------------------------|---------------------------------|
A|----------------------------------|--3------------------------------|
E|--4-4-4-4-4-4-4-4-4-4-4-4-4-4-4-4-|--1--1-1-1-1-1-1-1-1-1-1-1-1-1-1-|


    S S S S S S S S S S S S S S S S    E  S S S S S S S S S S S S S S
e|----------------------------------|---------------------------------|
B|----------------------------------|---------------------------------|
G|----------------------------------|---------------------------------|
D|----------------------------------|---------------------------------|
A|----------------------------------|--6------------------------------|
E|--1-1-1-1-1-1-1-1-1-1-1-1-1-1-1-1-|--4--4-4-4-4-4-4-4-4-4-4-4-4-4-4-|


    S S S S S S S S S S S S S S S S    Q    H        Q       W
e|----------------------------------|---------------------|-------------------|
B|----------------------------------|---------------------|-------------------|
G|----------------------------------|--5------------------|-------------------|
D|----------------------------------|--5------------------|-------------------|
A|----------------------------------|--3------------------|-------------------|
E|--4-4-4-4-4-4-4-4-4-4-4-4-4-4-4-4-|---------------------|-------------------|


    Q    H        Q       W                   Q    H        Q
e|---------------------|-------------------|---------------------|
B|---------------------|-------------------|---------------------|
G|---------------------|-------------------|--3------------------|
D|--6------------------|-------------------|--3------------------|
A|--6------------------|-------------------|--1------------------|
E|--4------------------|-------------------|---------------------|


    W                   E.  S E.  S E  Q.        Q    H        Q
e|-------------------|------------------------|---------------------|
B|-------------------|------------------------|---------------------|
G|-------------------|--3-----3-----3--3------|--5------------------|
D|-------------------|--3-----3-----3--3------|--5------------------|
A|-------------------|--1-----1-----1--1------|--3------------------|
E|-------------------|------------------------|---------------------|


    E  S S S S S S S S S S S S S S    S S S S S S S S E  E  E  E
e|---------------------------------|------------------------------|
B|---------------------------------|------------------------------|
G|---------------------------------|------------------------3--5--|
D|--5------------------------------|------------------5--5--3--5--|
A|--3--3-3-3-3-3-3-3-3-3-3-3-3-3-3-|--3-3-3-3-3-3-3-3-3--3--------|
E|---------------------------------|------------------------------|


    E  S S S S S S S S S S S S S S    S S S S S S S S S S S S S S S S
e|---------------------------------|----------------------------------|
B|---------------------------------|----------------------------------|
G|---------------------------------|----------------------------------|
D|---------------------------------|----------------------------------|
A|--6------------------------------|----------------------------------|
E|--4--4-4-4-4-4-4-4-4-4-4-4-4-4-4-|--4-4-4-4-4-4-4-4-4-4-4-4-4-4-4-4-|


    E  S S S S E  H           E  S S S S E  H           E  E  E  E  E  E  E  E
e|-------------------------|-------------------------|--------------------------|
B|-------------------------|-------------------------|--------------------------|
G|-------------3--L--------|-------------3--L--------|--------------------------|
D|--3----------3--L--------|--3----------3--L--------|--------5-----------5-----|
A|--1--1-1-1-1-1--L--------|--1--1-1-1-1-1--L--------|--3--3--3--3--3--3--3--3--|
E|-------------------------|-------------------------|--------------------------|


    E  Q    E  E  E  E  E     E  S S S S S S S S S S S S S S
e|-------------------------|---------------------------------|
B|-------------------------|---------------------------------|
G|-----5----3--5-----------|---------------------------------|
D|-----5----3--5-----------|--5------------------------------|
A|--3-------------3--3--3--|--3--3-3-3-3-3-3-3-3-3-3-3-3-3-3-|
E|-------------------------|---------------------------------|


    S S S S S S S S S S S S S S S S    E  S S S S S S S S S S S S S S
e|----------------------------------|---------------------------------|
B|----------------------------------|---------------------------------|
G|----------------------------------|---------------------------------|
D|----------------------------------|---------------------------------|
A|--3-3-3-3-3-3-3-3-3-3-3-3-3-3-3-3-|--6------------------------------|
E|----------------------------------|--4--4-4-4-4-4-4-4-4-4-4-4-4-4-4-|


    S S S S S S S S S S S S S S S S    E  S S E  E  E  E    Q
e|----------------------------------|-----------------------------|
B|----------------------------------|-----------------------------|
G|----------------------------------|-----------------------------|
D|----------------------------------|---------------3-----3b----|
A|----------------------------------|--1--1-1-1--1-----1----------|
E|--4-4-4-4-4-4-4-4-4-4-4-4-4-4-4-4-|-----------------------------|


    E  S S E  E    E  E    Q        E  S S S S S S S S S S S S S S
e|-------------------------------|---------------------------------|
B|-------------------------------|---------------------------------|
G|-------------------------------|---------------------------------|
D|---------------3-----3b----|--5------------------------------|
A|--1--1-1-1--1-------1----------|--3--3-3-3-3-3-3-3-3-3-3-3-3-3-3-|
E|-------------------------------|---------------------------------|


    E  E.  S E.  S E.  S E     W                   W
e|--------------------------|-------------------|-------------------|
B|--------------------------|-------------------|-------------------|
G|-----5-----5-----5-----5--|-------------------|-------------------|
D|-----5-----5-----5-----5--|--3----------------|--L----------------|
A|-----3-----3-----3-----3--|--3----------------|--L----------------|
E|--------------------------|--1----------------|--L----------------|


    W                   W                   W                   W
e|-------------------|-------------------|-------------------|-------------------|
B|-------------------|-------------------|-------------------|-------------------|
G|--5----------------|--L----------------|-------------------|-------------------|
D|--5----------------|--L----------------|--6----------------|--L----------------|
A|--3----------------|--L----------------|--6----------------|--L----------------|
E|-------------------|-------------------|--4----------------|--L----------------|


    Q    E  E  E  E  E  E     E.  S Q    Q    Q       W
e|-------------------------|-----------------------|-------------------|
B|-------------------------|-----------------------|-------------------|
G|--3----------------------|--3-----3---------3----|--8----------------|
D|--3----------------------|--3-----3----6----3----|--8----------------|
A|--1----1--1--1--1--1--1--|--1-----1----6----1----|--6----------------|
E|-------------------------|-------------4---------|-------------------|


    W                   W                   S S E  S S E  S S E    Q
e|-------------------|-------------------|------------------------------|
B|-------------------|-------------------|------------------------------|
G|-------------------|-------------------|------------------------------|
D|--8----------------|--6----------------|------------------------------|
A|--8----------------|--6----------------|--6-6-6--6-6-6--6-6-6--6----|
E|--6----------------|--4----------------|--4-4-4--4-4-4--4-4-4---------|


    E  E  E  E  E  E  E  E     E  E  E  E  E  E    Q
e|--------------------------|---------------------------|
B|--------------------------|---------------------------|
G|--------------------------|---------------------------|
D|--5--------5--------5-----|--3--------3---------------|
A|--3--3--3--3--3--3--3--3--|--1--1--1--1--1--1--1----|
E|--------------------------|---------------------------|


    E  S S S S S S S S S S S S S S    S S S S S S S S S S S S S S S S
e|---------------------------------|----------------------------------|
B|---------------------------------|----------------------------------|
G|---------------------------------|----------------------------------|
D|---------------------------------|----------------------------------|
A|--6------------------------------|----------------------------------|
E|--4--4-4-4-4-4-4-4-4-4-4-4-4-4-4-|--4-4-4-4-4-4-4-4-4-4-4-4-4-4-4-4-|


    W                   W                   E  E  E  E  E  E  E  E
e|-------------------|-------------------|--------------------------|
B|-------------------|-------------------|--------------------------|
G|--5----------------|-------------------|--------------------------|
D|--5----------------|--6----------------|--5--------5--------5-----|
A|--3----------------|--6----------------|--3--3--3--3--3--3--3--3--|
E|-------------------|--4----------------|--------------------------|


    W                   E  S S S S S S S S S S S S S S
e|-------------------|---------------------------------|
B|-------------------|---------------------------------|
G|--8----------------|---------------------------------|
D|--8----------------|---------------------------------|
A|--6----------------|--6------------------------------|
E|-------------------|--4--4-4-4-4-4-4-4-4-4-4-4-4-4-4-|


    S S S S S S S S S S S S S S S S    E  S S S S S S S S S S S S S S
e|----------------------------------|---------------------------------|
B|----------------------------------|---------------------------------|
G|----------------------------------|---------------------------------|
D|----------------------------------|--3------------------------------|
A|----------------------------------|--1--1-1-1-1-1-1-1-1-1-1-1-1-1-1-|
E|--4-4-4-4-4-4-4-4-4-4-4-4-4-4-4-4-|---------------------------------|


    Q    H        Q       W                   W
e|---------------------|-------------------|-------------------|
B|---------------------|-------------------|-------------------|
G|--3------------------|-------------------|-------------------|
D|--3------------------|--6----------------|--L----------------|
A|--1------------------|--6----------------|--L----------------|
E|---------------------|--4----------------|--L----------------|


    W                   W                   E  S S S S S S S S S S S S S S
e|-------------------|-------------------|---------------------------------|
B|-------------------|-------------------|---------------------------------|
G|--5----------------|--L----------------|---------------------------------|
D|--5----------------|--L----------------|--3------------------------------|
A|--3----------------|--L----------------|--1--1-1-1-1-1-1-1-1-1-1-1-1-1-1-|
E|-------------------|-------------------|---------------------------------|


    S S S S S S S S S S S S S S S S    W                   W
e|----------------------------------|-------------------|-------------------|
B|----------------------------------|-------------------|-------------------|
G|----------------------------------|-------------------|-------------------|
D|----------------------------------|--5----------------|--L----------------|
A|--1-1-1-1-1-1-1-1-1-1-1-1-1-1-1-1-|--5----------------|--L----------------|
E|----------------------------------|--3----------------|--L----------------|


    W                   W                   W                   W
e|-------------------|-------------------|-------------------|-------------------|
B|-------------------|-------------------|-------------------|-------------------|
G|-------------------|-------------------|--5----------------|--L----------------|
D|--6----------------|--L----------------|--5----------------|--L----------------|
A|--6----------------|--L----------------|--3----------------|--L----------------|
E|--4----------------|--L----------------|-------------------|-------------------|


    W                   Q    H        Q       W
e|-------------------|---------------------|-------------------|
B|-------------------|---------------------|-------------------|
G|--3----------------|--3------------------|--5----------------|
D|--3----------------|--3------------------|--5----------------|
A|--1----------------|--1------------------|--3----------------|
E|-------------------|---------------------|-------------------|


    W                   W                   W                   W
e|-------------------|-------------------|-------------------|-------------------|
B|-------------------|-------------------|-------------------|-------------------|
G|--L----------------|-------------------|--3----------------|--5----------------|
D|--L----------------|--6----------------|--3----------------|--5----------------|
A|--L----------------|--6----------------|--1----------------|--3----------------|
E|-------------------|--4----------------|-------------------|-------------------|


    W                   W                   W                   W
e|-------------------|-------------------|-------------------|-------------------|
B|-------------------|-------------------|-------------------|-------------------|
G|--L----------------|-------------------|--3----------------|--5----------------|
D|--L----------------|--6----------------|--3----------------|--5----------------|
A|--L----------------|--6----------------|--1----------------|--3----------------|
E|-------------------|--4----------------|-------------------|-------------------|


    W                   W                   W                   W
e|-------------------|-------------------|-------------------|-------------------|
B|-------------------|-------------------|-------------------|-------------------|
G|--L----------------|-------------------|--3----------------|--5----------------|
D|--L----------------|--6----------------|--3----------------|--5----------------|
A|--L----------------|--6----------------|--1----------------|--3----------------|
E|-------------------|--4----------------|-------------------|-------------------|


    W                   W                   Q    Q    E.  E.  E
e|-------------------|-------------------|-----------------------|
B|-------------------|-------------------|-----------------------|
G|--L----------------|-------------------|-------3---------------|
D|--L----------------|--6----------------|--6----3----6---5---3--|
A|--L----------------|--6----------------|--6----1----6---5---3--|
E|-------------------|--4----------------|--4---------4---3---1--|


    Q.     H        E     W                   Q    E  E  E  E  E  E
e|---------------------|-------------------|-------------------------|
B|---------------------|-------------------|-------------------------|
G|--5------------------|-------------------|--5----------------------|
D|--5------------------|-------------------|--5----------------------|
A|--3------------------|-------------------|--3----3--3--3--3--3--3--|
E|---------------------|-------------------|-------------------------|


    E  E  E  E  E  E  E  E     Q    E  E  E  E  E  E     E  E  E  E  E  E  E  E
e|--------------------------|-------------------------|--------------------------|
B|--------------------------|-------------------------|--------------------------|
G|--------------------------|-------------------------|--------------------------|
D|--------------------------|--6----------------------|--------------------------|
A|--3--3--3--3--3--3--3--3--|--6----------------------|--------------------------|
E|--------------------------|--4----4--4--4--4--4--4--|--4--4--4--4--4--4--4--4--|


    Q    E  E  E  E  E  E     E  E  E  E  E  E  E  E     Q    H        Q
e|-------------------------|--------------------------|---------------------|
B|-------------------------|--------------------------|---------------------|
G|--3----------------------|--------------------------|--5------------------|
D|--3----------------------|--------------------------|--5------------------|
A|--1----1--1--1--1--1--1--|--1--1--1--1--1--1--1--1--|--3------------------|
E|-------------------------|--------------------------|---------------------|


    Q    H        Q       E  S S S S S S S S S S S S S S
e|---------------------|---------------------------------|
B|---------------------|---------------------------------|
G|--5------------------|---------------------------------|
D|--5------------------|--5------------------------------|
A|--3------------------|--3--3-3-3-3-3-3-3-3-3-3-3-3-3-3-|
E|---------------------|---------------------------------|


    S S S S S S S S S S S S S S S S    E  S S S S S S S S S S S S S S
e|----------------------------------|---------------------------------|
B|----------------------------------|---------------------------------|
G|----------------------------------|---------------------------------|
D|----------------------------------|---------------------------------|
A|--3-3-3-3-3-3-3-3-3-3-3-3-3-3-3-3-|--6------------------------------|
E|----------------------------------|--4--4-4-4-4-4-4-4-4-4-4-4-4-4-4-|


    S S S S S S S S S S S S S S S S    E  S S S S E  H
e|----------------------------------|-------------------------|
B|----------------------------------|-------------------------|
G|----------------------------------|-------------3--L--------|
D|----------------------------------|--3----------3--L--------|
A|----------------------------------|--1--1-1-1-1-1--L--------|
E|--4-4-4-4-4-4-4-4-4-4-4-4-4-4-4-4-|-------------------------|


    E  S S S S E  H           E  E  E  E  E  E  E  E     E  Q    E  E  E    Q
e|-------------------------|--------------------------|--------------------------|
B|-------------------------|--------------------------|--------------------------|
G|-------------3--L--------|--------------------------|-----5----3--5-----5----|
D|--3----------3--L--------|--------5-----------5-----|-----5----3--5------------|
A|--1--1-1-1-1-1--L--------|--3--3--3--3--3--3--3--3--|--3-------------3---------|
E|-------------------------|--------------------------|--------------------------|


    W                   W                   W                   W
e|-------------------|-------------------|-------------------|-------------------|
B|-------------------|-------------------|-------------------|-------------------|
G|-------------------|-------------------|--5----------------|--L----------------|
D|--3----------------|--L----------------|--5----------------|--L----------------|
A|--3----------------|--L----------------|--3----------------|--L----------------|
E|--1----------------|--L----------------|-------------------|-------------------|


    W                   W                   Q    E  E  E  E  E  E
e|-------------------|-------------------|-------------------------|
B|-------------------|-------------------|-------------------------|
G|-------------------|-------------------|--3----------------------|
D|--6----------------|--L----------------|--3----------------------|
A|--6----------------|--L----------------|--1----1--1--1--1--1--1--|
E|--4----------------|--L----------------|-------------------------|


    E.  S Q    Q    Q       W                   W
e|-----------------------|-------------------|-------------------|
B|-----------------------|-------------------|-------------------|
G|--3-----3---------3----|--8----------------|-------------------|
D|--3-----3----6----3----|--8----------------|--8----------------|
A|--1-----1----6----1----|--6----------------|--8----------------|
E|-------------4---------|-------------------|--6----------------|


    W                   S S E  S S E  S S E    Q       E  E  E  E  E  E  E  E
e|-------------------|------------------------------|--------------------------|
B|-------------------|------------------------------|--------------------------|
G|-------------------|------------------------------|--------------------------|
D|--6----------------|------------------------------|--5--------5--------5-----|
A|--6----------------|--6-6-6--6-6-6--6-6-6--6----|--3--3--3--3--3--3--3--3--|
E|--4----------------|--4-4-4--4-4-4--4-4-4---------|--------------------------|


    E  E  E  E  E  E    Q       W                   W
e|---------------------------|-------------------|-------------------|
B|---------------------------|-------------------|-------------------|
G|---------------------------|-------------------|-------------------|
D|--3--------3---------------|--6----------------|--L----------------|
A|--1--1--1--1--1--1--1----|--6----------------|--L----------------|
E|---------------------------|--4----------------|--L----------------|


    W                   W                   E  E  E  E  E  E  E  E
e|-------------------|-------------------|--------------------------|
B|-------------------|-------------------|--------------------------|
G|--5----------------|-------------------|--------------------------|
D|--5----------------|--6----------------|--5--------5--------5-----|
A|--3----------------|--6----------------|--3--3--3--3--3--3--3--3--|
E|-------------------|--4----------------|--------------------------|


    W                   E  S S S S S S S S S S S S S S
e|-------------------|---------------------------------|
B|-------------------|---------------------------------|
G|--8----------------|---------------------------------|
D|--8----------------|---------------------------------|
A|--6----------------|--6------------------------------|
E|-------------------|--4--4-4-4-4-4-4-4-4-4-4-4-4-4-4-|


    S S S S S S S S S S S S S S S S    E  S S S S S S S S S S S S S S
e|----------------------------------|---------------------------------|
B|----------------------------------|---------------------------------|
G|----------------------------------|---------------------------------|
D|----------------------------------|--3------------------------------|
A|----------------------------------|--1--1-1-1-1-1-1-1-1-1-1-1-1-1-1-|
E|--4-4-4-4-4-4-4-4-4-4-4-4-4-4-4-4-|---------------------------------|


    Q    H        Q       W                   W
e|---------------------|-------------------|-------------------|
B|---------------------|-------------------|-------------------|
G|--3------------------|-------------------|-------------------|
D|--3------------------|--6----------------|--L----------------|
A|--1------------------|--6----------------|--L----------------|
E|---------------------|--4----------------|--L----------------|


    W                   W                   E  S S S S S S S S S S S S S S
e|-------------------|-------------------|---------------------------------|
B|-------------------|-------------------|---------------------------------|
G|--5----------------|--L----------------|---------------------------------|
D|--5----------------|--L----------------|--3------------------------------|
A|--3----------------|--L----------------|--1--1-1-1-1-1-1-1-1-1-1-1-1-1-1-|
E|-------------------|-------------------|---------------------------------|


    S S S S S S S S S S S S S S S S    W                   W
e|----------------------------------|-------------------|-------------------|
B|----------------------------------|-------------------|-------------------|
G|----------------------------------|-------------------|-------------------|
D|----------------------------------|--5----------------|--L----------------|
A|--1-1-1-1-1-1-1-1-1-1-1-1-1-1-1-1-|--5----------------|--L----------------|
E|----------------------------------|--3----------------|--L----------------|


    W                   W                   W                   W
e|-------------------|-------------------|-------------------|-------------------|
B|-------------------|-------------------|-------------------|-------------------|
G|-------------------|-------------------|--5----------------|--L----------------|
D|--6----------------|--L----------------|--5----------------|--L----------------|
A|--6----------------|--L----------------|--3----------------|--L----------------|
E|--4----------------|--L----------------|-------------------|-------------------|


    W                   Q    H        Q       W
e|-------------------|---------------------|-------------------|
B|-------------------|---------------------|-------------------|
G|--3----------------|--3------------------|--5----------------|
D|--3----------------|--3------------------|--5----------------|
A|--1----------------|--1------------------|--3----------------|
E|-------------------|---------------------|-------------------|


    W                   W                   W                   W
e|-------------------|-------------------|-------------------|-------------------|
B|-------------------|-------------------|-------------------|-------------------|
G|--L----------------|-------------------|--3----------------|--5----------------|
D|--L----------------|--6----------------|--3----------------|--5----------------|
A|--L----------------|--6----------------|--1----------------|--3----------------|
E|-------------------|--4----------------|-------------------|-------------------|


    W                   W                   W                   W
e|-------------------|-------------------|-------------------|-------------------|
B|-------------------|-------------------|-------------------|-------------------|
G|--L----------------|-------------------|--3----------------|--5----------------|
D|--L----------------|--6----------------|--3----------------|--5----------------|
A|--L----------------|--6----------------|--1----------------|--3----------------|
E|-------------------|--4----------------|-------------------|-------------------|


    W                   W                   W                   W
e|-------------------|-------------------|-------------------|-------------------|
B|-------------------|-------------------|-------------------|-------------------|
G|--L----------------|-------------------|--3----------------|--5----------------|
D|--L----------------|--6----------------|--3----------------|--5----------------|
A|--L----------------|--6----------------|--1----------------|--3----------------|
E|-------------------|--4----------------|-------------------|-------------------|


    W                   W                   Q    Q    E.  E.  E
e|-------------------|-------------------|-----------------------|
B|-------------------|-------------------|-----------------------|
G|--L----------------|-------------------|-------3---------------|
D|--L----------------|--6----------------|--6----3----6---5---3--|
A|--L----------------|--6----------------|--6----1----6---5---3--|
E|-------------------|--4----------------|--4---------4---3---1--|


    Q.     H        E     H        Q    Q       Q    H        Q
e|---------------------|---------------------|---------------------|
B|---------------------|---------------------|---------------------|
G|--5------------------|----------------3----|--5------------------|
D|--5------------------|----------------3----|--5------------------|
A|--3------------------|----------------1----|--3------------------|
E|---------------------|---------------------|---------------------|


    H        Q    E  E     Q    H        Q       H        Q    Q
e|----------------------|---------------------|---------------------|
B|----------------------|---------------------|---------------------|
G|-------------------3--|--5------------------|----------------3----|
D|-------------------3--|--5------------------|----------------3----|
A|-------------------1--|--3------------------|----------------1----|
E|----------------------|---------------------|---------------------|


    Q    H        Q       W                   W
e|---------------------|-------------------|-------------------|
B|---------------------|-------------------|-------------------|
G|--5------------------|-------------------|-------------------|
D|--5------------------|-------------------|--6----------------|
A|--3------------------|-------------------|--6----------------|
E|---------------------|-------------------|--4----------------|


    H.           Q       Q    H        Q       H        Q    E  E
e|--------------------|---------------------|----------------------|
B|--------------------|---------------------|----------------------|
G|---------------3----|--5------------------|-------------------3--|
D|--L------------3----|--5------------------|-------------------3--|
A|--L------------1----|--3------------------|-------------------1--|
E|--L-----------------|---------------------|----------------------|


    Q    H        Q       H        Q    Q       Q    H        Q
e|---------------------|---------------------|---------------------|
B|---------------------|---------------------|---------------------|
G|--5------------------|----------------3----|--5------------------|
D|--5------------------|----------------3----|--5------------------|
A|--3------------------|----------------1----|--3------------------|
E|---------------------|---------------------|---------------------|


    W                   W                   W                   W
e|-------------------|-------------------|-------------------|-------------------|
B|-------------------|-------------------|-------------------|-------------------|
G|-------------------|-------------------|-------------------|-------------------|
D|-------------------|--6----------------|--L----------------|--L----------------|
A|-------------------|--6----------------|--L----------------|--L----------------|
E|-------------------|--4----------------|--L----------------|--L----------------|


    E  S S S S S S S S S S S S S S    S S S S S S S S S S S S S S S S
e|---------------------------------|----------------------------------|
B|---------------------------------|----------------------------------|
G|---------------------------------|----------------------------------|
D|--5------------------------------|----------------------------------|
A|--3--3-3-3-3-3-3-3-3-3-3-3-3-3-3-|--3-3-3-3-3-3-3-3-3-3-3-3-3-3-3-3-|
E|---------------------------------|----------------------------------|


    E  S S S S S S S S S S S S S S    E  S S S S S S E  S S S S S S
e|---------------------------------|--------------------------------|
B|---------------------------------|--------------------------------|
G|---------------------------------|--------------------------------|
D|---------------------------------|-----------------3--------------|
A|--6------------------------------|--6--------------1--1-1-1-1-1-1-|
E|--4--4-4-4-4-4-4-4-4-4-4-4-4-4-4-|--4--4-4-4-4-4-4----------------|


    E  S S S S S S S S S S S S S S    S S S S S S S S S S S S S S S S
e|---------------------------------|----------------------------------|
B|---------------------------------|----------------------------------|
G|---------------------------------|----------------------------------|
D|--5------------------------------|----------------------------------|
A|--3--3-3-3-3-3-3-3-3-3-3-3-3-3-3-|--3-3-3-3-3-3-3-3-3-3-3-3-3-3-3-3-|
E|---------------------------------|----------------------------------|


    E  S S S S S S S S S S S S S S    E  S S S S S S E  S S S S S S
e|---------------------------------|--------------------------------|
B|---------------------------------|--------------------------------|
G|---------------------------------|--------------------------------|
D|---------------------------------|-----------------3--------------|
A|--6------------------------------|--6--------------1--1-1-1-1-1-1-|
E|--4--4-4-4-4-4-4-4-4-4-4-4-4-4-4-|--4--4-4-4-4-4-4----------------|


    H        H           H        H           E  S S S S S S S S S S S S S S
e|--------------------|--------------------|---------------------------------|
B|--------------------|--------------------|---------------------------------|
G|-----------5--------|--3--------5--------|---------------------------------|
D|--6--------5--------|--3--------5--------|---------------------------------|
A|--6--------3--------|--1--------3--------|--6------------------------------|
E|--4-----------------|--------------------|--4--4-4-4-4-4-4-4-4-4-4-4-4-4-4-|


    E  S S S S S S S S S S S S S S    H        H           H        H
e|---------------------------------|--------------------|--------------------|
B|---------------------------------|--------------------|--------------------|
G|---------------------------------|--5-----------------|--3--------5--------|
D|--3------------------------------|--5--------6--------|--3--------5--------|
A|--1--1-1-1-1-1-1-1-1-1-1-1-1-1-1-|--3--------6--------|--1--------3--------|
E|---------------------------------|-----------4--------|--------------------|


    E  S S S S S S S S S S S S S S    H        H
e|---------------------------------|--------------------|
B|---------------------------------|--------------------|
G|---------------------------------|-----------3--------|
D|---------------------------------|--6--------3--------|
A|--5------------------------------|--6--------1--------|
E|--3--3-3-3-3-3-3-3-3-3-3-3-3-3-3-|--4-----------------|


    E  S S S S S S S S S S S S S S    S S S S S S S S S S S S S S S S
e|---------------------------------|----------------------------------|
B|---------------------------------|----------------------------------|
G|---------------------------------|----------------------------------|
D|--5------------------------------|----------------------------------|
A|--3--3-3-3-3-3-3-3-3-3-3-3-3-3-3-|--3-3-3-3-3-3-3-3-3-3-3-3-3-3-3-3-|
E|---------------------------------|----------------------------------|


    E  S S S S S S S S S S S S S S    E  S S S S S S E  S S S S S S
e|---------------------------------|--------------------------------|
B|---------------------------------|--------------------------------|
G|---------------------------------|--------------------------------|
D|---------------------------------|-----------------3--------------|
A|--6------------------------------|--6--------------1--1-1-1-1-1-1-|
E|--4--4-4-4-4-4-4-4-4-4-4-4-4-4-4-|--4--4-4-4-4-4-4----------------|


    E  S S S S S S S S S S S S S S    S S S S S S S S S S S S S S S S
e|---------------------------------|----------------------------------|
B|---------------------------------|----------------------------------|
G|---------------------------------|----------------------------------|
D|--5------------------------------|----------------------------------|
A|--3--3-3-3-3-3-3-3-3-3-3-3-3-3-3-|--3-3-3-3-3-3-3-3-3-3-3-3-3-3-3-3-|
E|---------------------------------|----------------------------------|


    E  S S S S S S S S S S S S S S    E  S S S S S S E  S S S S S S
e|---------------------------------|--------------------------------|
B|---------------------------------|--------------------------------|
G|---------------------------------|--------------------------------|
D|---------------------------------|-----------------3--------------|
A|--6------------------------------|--6--------------1--1-1-1-1-1-1-|
E|--4--4-4-4-4-4-4-4-4-4-4-4-4-4-4-|--4--4-4-4-4-4-4----------------|


    H        H           H        H           E  S S S S S S S S S S S S S S
e|--------------------|--------------------|---------------------------------|
B|--------------------|--------------------|---------------------------------|
G|-----------5--------|--3--------5--------|---------------------------------|
D|--6--------5--------|--3--------5--------|---------------------------------|
A|--6--------3--------|--1--------3--------|--6------------------------------|
E|--4-----------------|--------------------|--4--4-4-4-4-4-4-4-4-4-4-4-4-4-4-|


    E  S S S S S S S S S S S S S S    H        H           H        H
e|---------------------------------|--------------------|--------------------|
B|---------------------------------|--------------------|--------------------|
G|---------------------------------|--5-----------------|--3--------5--------|
D|--3------------------------------|--5--------6--------|--3--------5--------|
A|--1--1-1-1-1-1-1-1-1-1-1-1-1-1-1-|--3--------6--------|--1--------3--------|
E|---------------------------------|-----------4--------|--------------------|


    E  S S S S S S S S S S S S S S    H        H           Q    H        Q
e|---------------------------------|--------------------|---------------------|
B|---------------------------------|--------------------|---------------------|
G|---------------------------------|-----------3--------|--5------------------|
D|---------------------------------|--6--------3--------|--5------------------|
A|--5------------------------------|--6--------1--------|--3------------------|
E|--3--3-3-3-3-3-3-3-3-3-3-3-3-3-3-|--4-----------------|---------------------|


    Q    H        Q       Q    H        Q       W
e|---------------------|---------------------|-------------------|
B|---------------------|---------------------|-------------------|
G|--5------------------|--5------------------|-------------------|
D|--5------------------|--5------------------|--6----------------|
A|--3------------------|--3------------------|--6----------------|
E|---------------------|---------------------|--4----------------|


    Q    H        Q       Q    H        Q       Q    H        Q
e|---------------------|---------------------|---------------------|
B|---------------------|---------------------|---------------------|
G|--5------------------|--5------------------|--5------------------|
D|--5------------------|--5------------------|--5------------------|
A|--3------------------|--3------------------|--3------------------|
E|---------------------|---------------------|---------------------|


    W                   W                   W
e|-------------------|-------------------|-------------------|
B|-------------------|-------------------|-------------------|
G|-------------------|-------------------|-------------------|
D|--6----------------|--5----------------|-------------------|
A|--6----------------|--5----------------|-------------------|
E|--4----------------|--3----------------|-------------------|


    E  S S S S S S S S S S S S S S    S S S S S S S S S S S S S S S S
e|---------------------------------|----------------------------------|
B|---------------------------------|----------------------------------|
G|---------------------------------|----------------------------------|
D|--5------------------------------|----------------------------------|
A|--3--3-3-3-3-3-3-3-3-3-3-3-3-3-3-|--3-3-3-3-3-3-3-3-3-3-3-3-3-3-3-3-|
E|---------------------------------|----------------------------------|


    E  S S S S S S S S S S S S S S    S S S S S S S S S S S S S S S S
e|---------------------------------|----------------------------------|
B|---------------------------------|----------------------------------|
G|---------------------------------|----------------------------------|
D|---------------------------------|----------------------------------|
A|--6------------------------------|----------------------------------|
E|--4--4-4-4-4-4-4-4-4-4-4-4-4-4-4-|--4-4-4-4-4-4-4-4-4-4-4-4-4-4-4-4-|


    E  S S S S E  H           E  S S S S E  H           E  E  E  E  E  E  E  E
e|-------------------------|-------------------------|--------------------------|
B|-------------------------|-------------------------|--------------------------|
G|-------------------------|-------------------------|--------------------------|
D|--3----------3--L--------|--3----------3--L--------|--------5-----------5-----|
A|--1--1-1-1-1-1--L--------|--1--1-1-1-1-1--L--------|--3--3--3--3--3--3--3--3--|
E|-------------------------|-------------------------|--------------------------|


    E  Q    E  E  E  E  E     E  S S S S S S S S S S S S S S
e|-------------------------|---------------------------------|
B|-------------------------|---------------------------------|
G|-----5----3--5-----------|---------------------------------|
D|-----5----3--5-----------|--5------------------------------|
A|--3-------------3--3--3--|--3--3-3-3-3-3-3-3-3-3-3-3-3-3-3-|
E|-------------------------|---------------------------------|


    S S S S S S S S S S S S S S S S    E  S S S S S S S S S S S S S S
e|----------------------------------|---------------------------------|
B|----------------------------------|---------------------------------|
G|----------------------------------|---------------------------------|
D|----------------------------------|---------------------------------|
A|--3-3-3-3-3-3-3-3-3-3-3-3-3-3-3-3-|--6------------------------------|
E|----------------------------------|--4--4-4-4-4-4-4-4-4-4-4-4-4-4-4-|


    S S S S S S S S S S S S S S S S    E  S S S S S S S S S S S S S S
e|----------------------------------|---------------------------------|
B|----------------------------------|---------------------------------|
G|----------------------------------|---------------------------------|
D|----------------------------------|--3------------------------------|
A|----------------------------------|--1--1-1-1-1-1-1-1-1-1-1-1-1-1-1-|
E|--4-4-4-4-4-4-4-4-4-4-4-4-4-4-4-4-|---------------------------------|


    S S S S S S S S S S S S S S S S    W                   W
e|----------------------------------|-------------------|-------------------|
B|----------------------------------|-------------------|-------------------|
G|----------------------------------|--5----------------|--5----------------|
D|----------------------------------|--5----------------|--5----------------|
A|--1-1-1-1-1-1-1-1-1-1-1-1-1-1-1-1-|--3----------------|--3----------------|
E|----------------------------------|-------------------|-------------------|


    E  S S S S S S S S S S S S S S    E  E  E  E  H
e|---------------------------------|-----------------------|
B|---------------------------------|-----------------------|
G|---------------------------------|-----------------------|
D|---------------------------------|--------------3--------|
A|--3------------------------------|--3--3-----3--3--------|
E|--1--1-1-1-1-1-1-1-1-1-1-1-1-1-1-|--1--1-----1--1--------|


    E  E  H        E  E     E  E  H        Q
e|-----------------------|----------------------|
B|-----------------------|----------------------|
G|--5--5--------------5--|--5--5----------------|
D|--5--5--------------5--|--5--5----------------|
A|--3--3--------------3--|--3--3----------------|
E|-----------------------|----------------------|


    E  S S S S S S S S S S S S S S    S S S S S S S S S S S S S S S S
e|---------------------------------|----------------------------------|
B|---------------------------------|----------------------------------|
G|---------------------------------|----------------------------------|
D|---------------------------------|----------------------------------|
A|--6------------------------------|----------------------------------|
E|--4--4-4-4-4-4-4-4-4-4-4-4-4-4-4-|--4-4-4-4-4-4-4-4-4-4-4-4-4-4-4-4-|


    Q    H        Q       Q    H        Q       W
e|---------------------|---------------------|-------------------|
B|---------------------|---------------------|-------------------|
G|--3------------------|-------3--------L----|--8----------------|
D|--3------------------|-------3--------L----|--8----------------|
A|--1------------------|-------1--------L----|--6----------------|
E|---------------------|---------------------|-------------------|


    W                   W                   S S E  S S E  S S E  Q
e|-------------------|-------------------|----------------------------|
B|-------------------|-------------------|----------------------------|
G|-------------------|-------------------|----------------------------|
D|--8----------------|--6----------------|----------------------------|
A|--8----------------|--6----------------|--6-6-6--6-6-6--6-6-6--6----|
E|--6----------------|--4----------------|--4-4-4--4-4-4--4-4-4--4----|


    E  S S S S S S S S S S S S S S    E  S S S S S S S S S S S S S S
e|---------------------------------|---------------------------------|
B|---------------------------------|---------------------------------|
G|---------------------------------|---------------------------------|
D|--5------------------------------|--3------------------------------|
A|--3--3-3-3-3-3-3-3-3-3-3-3-3-3-3-|--1--1-1-1-1-1-1-1-1-1-1-1-1-1-1-|
E|---------------------------------|---------------------------------|


    W                   W                   W                   W
e|-------------------|-------------------|-------------------|-------------------|
B|-------------------|-------------------|-------------------|-------------------|
G|-------------------|-------------------|--5----------------|-------------------|
D|--6----------------|--L----------------|--5----------------|--6----------------|
A|--6----------------|--L----------------|--3----------------|--6----------------|
E|--4----------------|--L----------------|-------------------|--4----------------|


    E  E  E  E  E  E  E  E     W                   W
e|--------------------------|-------------------|-------------------|
B|--------------------------|-------------------|-------------------|
G|--------------------------|--8----------------|-------------------|
D|--5--------5--------5-----|--8----------------|--3----------------|
A|--3--3--3--3--3--3--3--3--|--6----------------|--3----------------|
E|--------------------------|-------------------|--1----------------|


    W                   W                   W                   W
e|-------------------|-------------------|-------------------|-------------------|
B|-------------------|-------------------|-------------------|-------------------|
G|-------------------|--5----------------|--3----------------|-------------------|
D|--L----------------|--5----------------|--3----------------|--6----------------|
A|--L----------------|--3----------------|--1----------------|--6----------------|
E|--L----------------|-------------------|-------------------|--4----------------|


    W                   W                   W
e|-------------------|-------------------|-------------------|
B|-------------------|-------------------|-------------------|
G|-------------------|--5----------------|--L----------------|
D|--L----------------|--5----------------|--L----------------|
A|--L----------------|--3----------------|--L----------------|
E|--L----------------|-------------------|-------------------|


    E  S S S S S S S S S S S S S S    S S S S S S S S S S S S S S S S
e|---------------------------------|----------------------------------|
B|---------------------------------|----------------------------------|
G|---------------------------------|----------------------------------|
D|--3------------------------------|----------------------------------|
A|--1--1-1-1-1-1-1-1-1-1-1-1-1-1-1-|--1-1-1-1-1-1-1-1-1-1-1-1-1-1-1-1-|
E|---------------------------------|----------------------------------|


    W                   H        H           W
e|-------------------|--------------------|-------------------|
B|-------------------|--------------------|-------------------|
G|-------------------|-----------3--------|-------------------|
D|--5----------------|--6--------3--------|--6----------------|
A|--5----------------|--6--------1--------|--6----------------|
E|--3----------------|--4-----------------|--4----------------|


    W                   E  Q    E  E  Q    E     E  Q    E  E  Q    E
e|-------------------|------------------------|------------------------|
B|-------------------|------------------------|------------------------|
G|-------------------|-----5----------5-------|-----5----------5-------|
D|--L----------------|-----5----------5-------|-----5----------5-------|
A|--L----------------|--3--3----3--3--3----3--|--3--3----3--3--3----3--|
E|--L----------------|------------------------|------------------------|


    W                   W                   W                   W
e|-------------------|-------------------|-------------------|-------------------|
B|-------------------|-------------------|-------------------|-------------------|
G|--3----------------|--L----------------|--5----------------|--L----------------|
D|--3----------------|--L----------------|--5----------------|--L----------------|
A|--1----------------|--L----------------|--3----------------|--L----------------|
E|-------------------|-------------------|-------------------|-------------------|


    W                   W                   W                   W
e|-------------------|-------------------|-------------------|-------------------|
B|-------------------|-------------------|-------------------|-------------------|
G|--5----------------|--L----------------|-------------------|-------------------|
D|--5----------------|--L----------------|--6----------------|--L----------------|
A|--3----------------|--L----------------|--6----------------|--L----------------|
E|-------------------|-------------------|--4----------------|--L----------------|


    W                   W                   W                   W
e|-------------------|-------------------|-------------------|-------------------|
B|-------------------|-------------------|-------------------|-------------------|
G|--3----------------|--L----------------|--8----------------|--L----------------|
D|--3----------------|--L----------------|--8----------------|--L----------------|
A|--1----------------|--L----------------|--6----------------|--L----------------|
E|-------------------|-------------------|-------------------|-------------------|


    W                   W                   W                   W
e|-------------------|-------------------|-------------------|-------------------|
B|-------------------|-------------------|-------------------|-------------------|
G|--5----------------|--L----------------|-------------------|-------------------|
D|--5----------------|--L----------------|--6----------------|--L----------------|
A|--3----------------|--L----------------|--6----------------|--L----------------|
E|-------------------|-------------------|--4----------------|--L----------------|


    W                   W                   Q    H        Q
e|-------------------|-------------------|---------------------|
B|-------------------|-------------------|---------------------|
G|--3----------------|--L----------------|---------------------|
D|--3----------------|--L----------------|--5------------------|
A|--1----------------|--L----------------|--5------------------|
E|-------------------|-------------------|--3------------------|


    W                   W                   W                   W
e|-------------------|-------------------|-------------------|-------------------|
B|-------------------|-------------------|-------------------|-------------------|
G|-------------------|-------------------|-------------------|--5----------------|
D|-------------------|--6----------------|--L----------------|--5----------------|
A|-------------------|--6----------------|--L----------------|--3----------------|
E|-------------------|--4----------------|--L----------------|-------------------|


    W                   E  S S S S S S S S S S S S S S
e|-------------------|---------------------------------|
B|-------------------|---------------------------------|
G|--L----------------|---------------------------------|
D|--L----------------|--3------------------------------|
A|--L----------------|--1--1-1-1-1-1-1-1-1-1-1-1-1-1-1-|
E|-------------------|---------------------------------|


    S S S S S S S S S S S S S S S S    W                   W
e|----------------------------------|-------------------|-------------------|
B|----------------------------------|-------------------|-------------------|
G|----------------------------------|-------------------|-------------------|
D|----------------------------------|--5----------------|--L----------------|
A|--1-1-1-1-1-1-1-1-1-1-1-1-1-1-1-1-|--5----------------|--L----------------|
E|----------------------------------|--3----------------|--L----------------|


    W                   W                   W                   W
e|-------------------|-------------------|-------------------|-------------------|
B|-------------------|-------------------|-------------------|-------------------|
G|-------------------|-------------------|--5----------------|--L----------------|
D|--6----------------|--L----------------|--5----------------|--L----------------|
A|--6----------------|--L----------------|--3----------------|--L----------------|
E|--4----------------|--L----------------|-------------------|-------------------|


    W                   Q    H        Q       E  S S S S S S S S S S S S S S
e|-------------------|---------------------|---------------------------------|
B|-------------------|---------------------|---------------------------------|
G|--3----------------|--3------------------|---------------------------------|
D|--3----------------|--3------------------|--5------------------------------|
A|--1----------------|--1------------------|--3--3-3-3-3-3-3-3-3-3-3-3-3-3-3-|
E|-------------------|---------------------|---------------------------------|


    S S S S S S S S S S S S S S S S    E  S S S S S S S S S S S S S S
e|----------------------------------|---------------------------------|
B|----------------------------------|---------------------------------|
G|----------------------------------|---------------------------------|
D|----------------------------------|---------------------------------|
A|--3-3-3-3-3-3-3-3-3-3-3-3-3-3-3-3-|--6------------------------------|
E|----------------------------------|--4--4-4-4-4-4-4-4-4-4-4-4-4-4-4-|


    S S S S S S S S S S S S S S S S    E  S S S S S S S S S S S S S S
e|----------------------------------|---------------------------------|
B|----------------------------------|---------------------------------|
G|----------------------------------|---------------------------------|
D|----------------------------------|---------------------------------|
A|----------------------------------|--3------------------------------|
E|--4-4-4-4-4-4-4-4-4-4-4-4-4-4-4-4-|--1--1-1-1-1-1-1-1-1-1-1-1-1-1-1-|


    S S S S S S S S S S S S S S S S    E  S S S S S S S S S S S S S S
e|----------------------------------|---------------------------------|
B|----------------------------------|---------------------------------|
G|----------------------------------|---------------------------------|
D|----------------------------------|---------------------------------|
A|----------------------------------|--6------------------------------|
E|--1-1-1-1-1-1-1-1-1-1-1-1-1-1-1-1-|--4--4-4-4-4-4-4-4-4-4-4-4-4-4-4-|


    S S S S S S S S S S S S S S S S    E  S S S S S S S S S S S S S S
e|----------------------------------|---------------------------------|
B|----------------------------------|---------------------------------|
G|----------------------------------|---------------------------------|
D|----------------------------------|--5------------------------------|
A|----------------------------------|--3--3-3-3-3-3-3-3-3-3-3-3-3-3-3-|
E|--4-4-4-4-4-4-4-4-4-4-4-4-4-4-4-4-|---------------------------------|


    S S S S S S S S S S S S S S S S    E  S S S S S S S S S S S S S S
e|----------------------------------|---------------------------------|
B|----------------------------------|---------------------------------|
G|----------------------------------|---------------------------------|
D|----------------------------------|---------------------------------|
A|--3-3-3-3-3-3-3-3-3-3-3-3-3-3-3-3-|--6------------------------------|
E|----------------------------------|--4--4-4-4-4-4-4-4-4-4-4-4-4-4-4-|


    S S S S S S S S S S S S S S S S    E  S S S S S S S S S S S S S S
e|----------------------------------|---------------------------------|
B|----------------------------------|---------------------------------|
G|----------------------------------|---------------------------------|
D|----------------------------------|---------------------------------|
A|----------------------------------|--3------------------------------|
E|--4-4-4-4-4-4-4-4-4-4-4-4-4-4-4-4-|--1--1-1-1-1-1-1-1-1-1-1-1-1-1-1-|


    S S S S S S S S S S S S S S S S    W                   W
e|----------------------------------|-------------------|-------------------|
B|----------------------------------|-------------------|-------------------|
G|----------------------------------|-------------------|-------------------|
D|----------------------------------|-------------------|-------------------|
A|----------------------------------|-------------------|-------------------|
E|--1-1-1-1-1-1-1-1-1-1-1-1-1-1-1-1-|-------------------|-------------------|


    E  E  E  E  E  E  E  E     E  E  E  E  E  E  E  E
e|--------------------------|--------------------------|
B|--------------------------|--------------------------|
G|--5--5--5--5-----5-----5--|-----5-----5--5--5--5-----|
D|--5--5--5--5-----5-----5--|-----5-----5--5--5--5-----|
A|--3--3--3--3-----3-----3--|-----3-----3--3--3--3-----|
E|--------------------------|--------------------------|


    E  E  E  E  E  E  E  E     E  E  E  E  E  E  E  E
e|--------------------------|--------------------------|
B|--------------------------|--------------------------|
G|--8--8--8--8-----8-----8--|-----8-----8--8--8--8-----|
D|--8--8--8--8-----8-----8--|-----8-----8--8--8--8-----|
A|--6--6--6--6-----6-----6--|-----6-----6--6--6--6-----|
E|--------------------------|--------------------------|


    E  E  E  E  E  E  E  E     E  E  E  E  E  E  E  E     W
e|--------------------------|--------------------------|-------------------|
B|--------------------------|--------------------------|-------------------|
G|--------------------------|--------------------------|-------------------|
D|--3--3--3--3-----3-----3--|-----3-----3--3--3--3-----|--5----------------|
A|--3--3--3--3-----3-----3--|-----3-----3--3--3--3-----|--5----------------|
E|--1--1--1--1-----1-----1--|-----1-----1--1--1--1-----|--3----------------|


    W                   W                   W                   W
e|-------------------|-------------------|-------------------|-------------------|
B|-------------------|-------------------|-------------------|-------------------|
G|-------------------|-------------------|-------------------|-------------------|
D|--L----------------|--L----------------|--L----------------|--L----------------|
A|--L----------------|--L----------------|--L----------------|--L----------------|
E|--L----------------|--L----------------|--L----------------|--L----------------|


    W                   E  E  E  E  E  E  E  E     Q    H        Q
e|-------------------|--------------------------|---------------------|
B|-------------------|--------------------------|---------------------|
G|-------------------|--------------------------|---------------------|
D|--L----------------|--------------------------|--5------------------|
A|--L----------------|--5--5--5--5--5--5--5--5--|--5------------------|
E|--L----------------|--3--3--3--3--3--3--3--3--|--3------------------|


                 |----3----|
    S S S S Q    Q    Q    Q       Q     H        Q
e|------------------------------|----------------------||
B|------------------------------|----------------------||
G|---------------5----5----5----|--5\------------------||
D|--5-5-5-5-5----5----5----5----|--5\------------------||
A|--3-3-3-3-3----3----3----3----|--3\------------------||
E|------------------------------|----------------------||


************************************

| (n)  Ghost note
| h    Hammer-on
| p    Pull-off
| b    Bend
| br   Bend release
| brb  Bend-release-bend
| pbr  Pre-bend release
| /    Slide up
| \    Slide down
| ~    Vibrato 

************************************

4. Good Mourning/Black Friday by Megadeth

This song is a bit less known and it’s likely no one will have heard it at a party. But that’s fine because the song is definitely one of the hardest songs I have ever learned to play. The song starts off soft and clean then gets really fast really quick.

The solos sound impressive and the song contains almost every technique under the sun. Anybody who knows anything about guitar will know the song is impressive, and they’ll likely tell their friends that you did really well and are awesome.

Tab:

Band- Megadeth
Song- Good Mourning Black Friday

Tuning: 1/4 step down


Riff 1 (acoustic)
e|-----------0----------------0---------|
B|-----9---------9------9---------------|
G|---8---8-8---8------8---8-8---8-------|
D|-6----------------9-------------------|
A|--------------------------------11-10-|
E|--------------------------------------|

e|-----------0---------------3-----------6-9-------11-|
B|-----9-----------------------4-------5-------8-11---|
G|---8---8-8---8---------3-------6-4-6-------9--------|
D|---------------------5---5--------------------------|
A|-7-------------7h9-4--------------------------------|
E|----------------------------------------------------|


Riff 2 (acoustic)
e|---------0-------------0-------------0-------|
B|-----9-------9-------9---9-------9-------9---|
G|---8---8---8-------8-------8---8---8---8-----|
D|-6-------------6-8-----------9-------------9-|
A|---------------------------------------------|
E|---------------------------------------------|

e|---------------------------|
B|------9-----9-----9-----8--|
G|----8-----8-----8-----8----|
D|-11-----9-----8-----6------|
A|---------------------------|
E|---------------------------|


Solo over Riff 2 (Distortion, Poland)
e|---------------------------------------|
B|-12h14~---12~--11~--9~--5\4~~---(4)d3*-|
G|---------------------------------------|
D|---------------------------------------|
A|---------------------------------------|
E|---------------------------------------|

e|-----14-19~--18~--16~------------------|
B|---17-------------------19b21~~----19~-|
G|-18------------------------------------|
D|---------------------------------------|
A|---------------------------------------|
E|---------------------------------------|

e|-----------------------------------------------------|
B|-12h14~---12~--11~--9~--5\4~~-(4)d2r4*---------------|
G|---------------------------------------6-4-3~-(3)d2*-|
D|-----------------------------------------------------|
A|-----------------------------------------------------|
E|-----------------------------------------------------|

e|---------------|
B|---------------|
G|----18~~~------|
D|-----a---------|
A|---------------|
E|---------------|

End solo



Riff 3 (acoustic)
e|---------11-9---------------------9---|
B|-------9------12-9--------9-12-11---8-|
G|---8------------------8---------------|
D|-9---9--------------8---8-------------|
A|--------------------------------------|
E|--------------------------------------|


Solo over Riff 3 (Distortion, Poland)
e|-------------------------------------|
B|-------------------------------------|
G|-------18b20--16-20b21--15--(15)b16~-|
D|-19b21-------------------------------|
A|-------------------------------------|
E|-------------------------------------|

e|---------------------------------------------|
B|-17b19~--17-16-------------------------------|
G|---------------18-16-15~~--------------------|
D|---------------------------17-16-------------|
A|---------------------------------18-14~~d12*-|
E|---------------------------------------------|

End solo


Riff 4
Guitar 1 (acoustic)
e|-----0----------------------------------------------------|
B|----------10-8h10p8----/12--------12----------------------|
G|-9-9---11-----------11------11-11----14-12-11h12p11-------|
D|----------------------------------------------------14-12-|
A|----------------------------------------------------------|
E|----------------------------------------------------------|

e|-----------------------------------------------------|
B|-----------------------------------------------------|
G|-12----11-12-14-12-11----11-------11-12-14-12h14p12\-|
D|----14----------------14----13-14--------------------|
A|-----------------------------------------------------|
E|-----------------------------------------------------|

e|-----0----------------------------------------------------|
B|----------10-8h10p8----/12--------12----------------------|
G|-9-9---11-----------11------11-11----14-12-11h12p11-------|
D|----------------------------------------------------14-12-|
A|----------------------------------------------------------|
E|----------------------------------------------------------|

e|----------------------------------------------------------|
B|-------------------------------------------------16-16/17-|
G|-12----11-12-14-12-11----11-------11-12-14-14/16----------|
D|----14----------------14----13-14-------------------------|
A|----------------------------------------------------------|
E|----------------------------------------------------------|


Guitar 2 (distortion, comes in at very end)
e|----------------------------------|
B|----------------------------------|
G|----------------------------------|
D|----------------------------------|
A|--2-----2--[rings into next riff]-|
E|--0-----0-------------------------|


Solo over Riff 4 (Distortion, Poland)
e|----------------------12b14r12-----------|
B|-------------------------------10~---/15-|
G|-10b12r10--8b9--6b7r6--------------------|
D|-----------------------------------------|
A|-----------------------------------------|
E|-----------------------------------------|

e|---------------------------------------|
B|---15b17--15p14------------------------|
G|-16------------16b17---16p14~--12--11~-|
D|---------------------------------------|
A|---------------------------------------|
E|---------------------------------------|

e|----------------------------------|
B|--------------10-10/12--16-16/17~-|
G|-11-8-9-11-12---------------------|
D|----------------------------------|
A|----------------------------------|
E|----------------------------------|

End solo


Riff 5
Guitar 1 (Acoustic)
e|-------------------------------------------------|
B|-----5-5---5-----5-5---5-----5-5---5-----5-5---5-|
G|---4-----4-----4-----4-----4-----4-----4-----4---|
D|-2-----------2-----------4-----------4-----------|
A|-------------------------------------------------|
E|-------------------------------------------------|

e|-------------------------------------------------|
B|-----5-5---5-----5-5---5----5---5----------------|
G|---4-----4-----4-----4----2---0------------------|
D|-5-----------5--------------------4~--5~--4~-----|
A|----------------------------------------------5~-|
E|-------------------------------------------------|

e|-------------------------------------------------|
B|-----5-5---5-----5-5---5-----5-5---5-----5-5---5-|
G|---4-----4-----4-----4-----4-----4-----4-----4---|
D|-2-----------2-----------0-----------0-----------|
A|-------------------------------------------------|
E|-------------------------------------------------|
                                        Final time
e|--------------------------------------|------|
B|-----5-5---5-----5-5---5--------------|------|
G|---4-----4-----4-----4----------------|------|
D|--------------------------5--7--9--11-|--9\--|
A|-3-----------2------------3--5--7---9-|--7\--|
E|--------------------------------------|------|


Guitar 2 (Distortion, slight palm muting)
e|-------------------------------------------------|
B|-----5-5---5-----5-5---5-----5-5---5-----5-5---5-|
G|---4-----4-----4-----4-----4-----4-----4-----4---|
D|-2-----------2-----------4-----------4-----------|
A|-------------------------------------------------|
E|-------------------------------------------------|

e|-------------------------------------------------|
B|-----5-5---5-----5-5---5----5---5----------------|
G|---4-----4-----4-----4----2---0------------------|
D|-5-----------5--------------------4~--5~--4~-----|
A|--------------------------------------a---a---5~-|
E|----------------------------------------------a--|

e|-------------------------------------------------|
B|-----5-5---5-----5-5---5-----5-5---5-----5-5---5-|
G|---4-----4-----4-----4-----4-----4-----4-----4---|
D|-2-----------2-----------0-----------0-----------|
A|-------------------------------------------------|
E|-------------------------------------------------|
                                    Final time
e|----------------------------------|------|
B|----------------------------------|------|
G|----------------------------------|------|
D|-2p0-----2p0-----2p0--5--7--9--11-|--9\--|
A|-----3~------2~-------3--5--7---9-|--7\--|
E|----------------------------------|------|


Solo over Riff 5 (Distortion, Mustaine)
e|-19~----19~-----------15-17-19~--19~-19~-19~-|
B|--------------15-17-19-----------------------|
G|---------------------------------------------|
D|---------------------------------------------|
A|---------------------------------------------|
E|---------------------------------------------|

e|---------14-15-17-15-14-15-14-12-------------------|
B|-14-15-17------------------------17-15-14-15-15-17-|
G|---------------------------------------------------|
D|---------------------------------------------------|
A|---------------------------------------------------|
E|---------------------------------------------------|

e|-------------------------------------------------|
B|-17-15-14-15-14-12-------------------------------|
G|-------------------16-14-12-14-12-16-14-12-14-12-|
D|-------------------------------------------------|
A|-------------------------------------------------|
E|-------------------------------------------------|

e|-------------------------------------------------------|
B|-------------------------------------------------------|
G|-------------------------------------------------------|
D|-16-14-12-14-12-14-16-14-12-14-12----------------------|
A|----------------------------------16-14-12-14-16-14-12-|
E|-------------------------------------------------------|

e|--------|
B|--------|
G|--------|
D|--------|
A|--------|
E|--12~~--|

e|-----------------------------------------------|
B|-----------------------------------------------|
G|-----------------------------------------------|
D|-----------------------------------------------|
A|-----------------------------------------------|
E|-----------------------------------------------|

e|-----------------------------------------------|
B|-----------------------------------------------|
G|-----------------------------------------------|
D|-----------------------------------------------|
A|-----------------------------------------------|
E|-----------------------------------------------|

e|-----------------------------------------------|
B|-----------------------------------------------|
G|-----------------------------------------------|
D|-----------------------------------------------|
A|-----------------------------------------------|
E|-----------------------------------------------|

e|---------15h17h19---------17h19h20-|
B|-15h17h19---------17h19h20---------|
G|-----------------------------------|
D|-----------------------------------|
A|-----------------------------------|
E|-----------------------------------|

e|---------19h20h22-14h15h17---------|
B|-19h20h22-----------------15h17h19-|
G|-----------------------------------|
D|-----------------------------------|
A|-----------------------------------|
E|-----------------------------------|

e|-15-17--14-15-----14----------------------|
B|---------------17-----15-17--14-15--------|
G|------------------------------------14-16-|
D|------------------------------------------|
A|------------------------------------------|
E|------------------------------------------|

e|-15-17--14-15-----14------------17b18~~-|
B|---------------17-----15-17--14---------|
G|----------------------------------------|
D|----------------------------------------|
A|----------------------------------------|
E|----------------------------------------|

e|-15-17--14-15-----14---------------------|
B|---------------17-----15-17--14-15----15-|
G|-----------------------------------14----|
D|-----------------------------------------|
A|-----------------------------------------|
E|-----------------------------------------|

e|---------------------------------------|
B|---15---15---15---15---15--------------|
G|-14---12---11---12---11----------------|
D|--------------------------12\2~~-------|
A|-----------------------------------5~~-|
E|---------------------------------------|

e|----------------------------------------|
B|----------------------------------------|
G|----------------------------------------|
D|-2p0-----2p0-----2p0-----------------9\-|
A|-----3~------2~----------------------7\-|
E|----------------------8\-10\-12\-14\----|

End solo



Riff 6
Guitar 1 (Distortion, slight palm muting)
e|--------------------------------------------------|
B|-----5-5---5-----5-5---5-----5-5---5----5---5-----|
G|---4-----4-----4-----4-----4-----4----2---0-------|
D|-2-----------4-----------5--------------------4-5-|
A|--------------------------------------------------|
E|--------------------------------------------------|
    "Hey, I don't feel so good..."

Guitar 2 (comes in after awhile)
e|----------------|
B|----------------|
G|----------------|
D|-2--------------|
A|-2--[let ring]--|
E|----------------|
   "Hey..."



Riff 7
Guitar 1                   x2
e|--------------------------|
B|--------------------------|
G|--------------------------|
D|-2----4----5----7--5--4-5-|
A|-2----4----5----7--5--4-5-|
E|--------------------------|
  "Something's coming over me..."

Guitar 2
e|--------------------------|
B|--------------------------|
G|--------------------------|
D|-2----4----5----7--5--4-5-|
A|-2----4----5----7--5--4-5-|
E|--------------------------|

e|---------------------|
B|---------------------|
G|---------------------|
D|-2----4----5---------|
A|-2----4----5---------|
E|----------------X\\--|



Riff 8
Guitar 1                  x3
e|-------------------------|
B|-------------------------|
G|-------------------------|
D|-------------------------|
A|-2----4----5----7-5--4-5-|
E|-0----2----3----5-3--2-3-|
  "Whoa..."
e|----------------|
B|----------------|
G|----------------|
D|----------------|
A|-2----4----5----|
E|-0----2----3----|


Guitar 2
e|-------------------------|
B|-------------------------|
G|-------------------------|
D|-------------------------|
A|-2----4----5----7-5--4-5-|
E|-0----2----3----5-3--2-3-|

e|-------------------------|
B|-------------------------|
G|-------------------------|
D|----------------7-5--4-5-|
A|-2--------------7-5--4-5-|
E|-0----6~---7~------------|

e|---------------------------|
B|---------------------------|
G|---------------------------|
D|---------------------------|
A|-7~---9~--10~--12-10--9-10-|
E|---------------------------|

e|----------------|
B|----------------|
G|----------------|
D|----------------|
A|-7~-------------|
E|------6~---7~---|




Interlude: (Mustaine)
e|---------------------------------|
B|---------------------------------|
G|-9p7p5---7p5-----5---------------|
D|-------9-----9-7---9-7-5-9p7p5---|
A|-------------------------------9-|
E|---------------------------------|

e|---------------------------------|
B|---------------------------------|
G|---------------------------------|
D|-7p5-----5-----------------------|
A|-----9-7---9-7-5-9p7p5---7p5-----|
E|-----------------------9-----9-7-|



Riff 9 (Solo Rhythm)
Guitar 1
e|--------------------|
B|--------------------|
G|--------------------|
D|--------------------|
A|-1--2-------3-2-----|
E|-2--3--0--------5-2-|
              * * * *


Solo (Mustaine)
e|-----------------------------------------------|
B|-----------------------------------------------|
G|-----------------------------------------------|
D|-----------------------------------------------|
A|-----------------------------------------------|
E|-----------------------------------------------|

e|-----------------------------------------------|
B|-----------------------------------------------|
G|-----------------------------------------------|
D|-----------------------------------------------|
A|-----------------------------------------------|
E|-----------------------------------------------|

e|-----------------------------------------------|
B|-----------------------------------------------|
G|-----------------------------------------------|
D|-----------------------------------------------|
A|-----------------------------------------------|
E|-----------------------------------------------|

e|-----------------------------------------------|
B|-----------------------------------------------|
G|-----------------------------------------------|
D|-----------------------------------------------|
A|-----------------------------------------------|
E|-----------------------------------------------|

End solo



Riff 10
Guitar 1          x4
e|-----------------|------|
B|-----------------|------|
G|-----------------|------|
D|-----------------|------|
A|-----------------|------|
E|-2~--0---3~--5~--|--2~--|

Guitar 2           x4
e|------------------|------|
B|------------------|------|
G|------------------|------|
D|--------------7~--|------|
A|-9~--7~--10~------|--9~--|
E|------------------|------|



Black Friday:

Riff 11
Guitar 1
e|------------------------------------------|
B|------------------------------------------|
G|------------------------------------------|
D|------------------------------------------|
A|-----3p2-------4/5------3p2---5p4---2h4---|
E|-222-----5-222-2/3--222-----3-----5-----3-|
   ***     * ***      ***     *     *     *
e|--------------------------------------------|
B|--------------------------------------------|
G|--------------------------------------------|
D|--------------------------------------------|
A|-----3p2-------4/5--5p4---3p2---2p0---------|
E|-222-----5-222-2/3------5-----3-----3-5-3-0-|
   ***     * ***          *     *     * * * *

Guitar 2
e|------------------------------------------|
B|------------------------------------------|
G|------------------------------------------|
D|------------------------------------------|
A|------------------------------------------|
E|------------------------------------------|

e|--------------------------------------------|
B|--------------------------------------------|
G|--------------------------------------------|
D|--------------------------------------------|
A|--------------------5p4---3p2---2p0---------|
E|------------------------5-----3-----3-5-3-0-|
                          *     *     * * * *
e|------------------------------------------|
B|------------------------------------------|
G|------------------------------------------|
D|---------------4/5------------------------|
A|-----3p2-------4/5------3p2---5p4---2h4---|
E|-222-----5-222------222-----3-----5-----3-|
   ***     * ***      ***     *     *     *
e|--------------------------------------------|
B|--------------------------------------------|
G|--------------------------------------------|
D|---------------4/5--------------------------|
A|-----3p2-------4/5--5p4---3p2---2p0---------|
E|-222-----5-222----------5-----3-----3-5-3-0-|
   ***     * ***          *     *     * * * *


Riff 11a
Guitar 1
e|------------------------------------------|
B|------------------------------------------|
G|------------------------------------------|
D|------------------------------------------|
A|-----3p2-------4/5------3p2---5p4---2h4---|
E|-222-----5-222-2/3--222-----3-----5-----3-|
   ***     * ***      ***     *     *     *
   "Killer, intruder..."
e|--------------------------------------------|
B|--------------------------------------------|
G|--------------------------------------------|
D|--------------------------------------------|
A|-----3p2-------4/5--5p4---3p2---2p0---------|
E|-222-----5-222-2/3------5-----3-----3-5-3-0-|
   ***     * ***          *     *     * * * *
   "You see me coming..."

Guitar 2
e|------------------------------------------|
B|------------------------------------------|
G|------------------------------------------|
D|---------------4/5------------------------|
A|-----3p2-------4/5------3p2---5p4---2h4---|
E|-222-----5-222------222-----3-----5-----3-|
   ***     * ***      ***     *     *     *
e|--------------------------------------------|
B|--------------------------------------------|
G|--------------------------------------------|
D|---------------4/5--------------------------|
A|-----3p2-------4/5--5p4---3p2---2p0---------|
E|-222-----5-222----------5-----3-----3-5-3-0-|
   ***     * ***          *     *     * * * *



Riff 12
Guitar 1
e|----------------------------------|
B|----------------------------------|
G|----------------------------------|
D|----------------------------------|
A|-----4p3-------6------4p3-------6-|
E|-333-----4-333-4--333-----4-333-4-|
   ***       ***    ***       ***
   "Bloodthristy demon..."
e|-------------------------------|
B|-------------------------------|
G|-------------------------------|
D|-------------5-6-------------5-|
A|-xxx-7-9--xx-3-4--xx-7-9--xx-3-|
E|-xxx-5-7--xx------xx-5-7--xx---|
   "...fiend..."
e|----------------------------------|
B|----------------------------------|
G|----------------------------------|
D|----------------------------------|
A|-----4p3-------6------4p3-------6-|
E|-333-----4-333-4--333-----4-333-4-|
   ***       ***    ***       ***
   "Bludgenous slaughters..."
e|--------------------------------|
B|--------------------------------|
G|--------------------------------|
D|-------------5-6-----9-11-----6-|
A|-xxx-7-9--xx-3-4--xx-7--9--xx-4-|
E|-xxx-5-7--xx------xx-------xx---|
   "...deeds..."

Guitar 2
e|----------------------------------|
B|----------------------------------|
G|----------------------------------|
D|---------------6----------------6-|
A|-----4p3-------6------4p3-------6-|
E|-333-----4-333----333-----4-333---|
   ***       ***    ***       ***
   "Bloodthristy demon..."
e|-------------------------------|
B|-------------------------------|
G|-------------------------------|
D|-------------5-6-------------5-|
A|-xxx-7-9--xx-3-4--xx-7-9--xx-3-|
E|-xxx-5-7--xx------xx-5-7--xx---|
   "...fiend..."
e|----------------------------------|
B|----------------------------------|
G|----------------------------------|
D|---------------6----------------6-|
A|-----4p3-------6------4p3-------6-|
E|-333-----4-333----333-----4-333---|
   ***       ***    ***       ***
   "Bludgenous slaughters..."
e|--------------------------------|
B|--------------------------------|
G|--------------------------------|
D|-------------5-6-----9-11-----6-|
A|-xxx-7-9--xx-3-4--xx-7--9--xx-4-|
E|-xxx-5-7--xx------xx-------xx---|
   "...deeds..."


Play Riff 11a "My hammer's a cold..."
Play Riff 12  "I unleash my hammer..."
Play Riff 11a  with this additional section:
e|-----------------------------------------------|
B|-----------------------------------------------|
G|-----------------------------------------------|
D|----------------------------------/11---(11)\--|
A|-7p6---5p4---3p2---2p0---4--------/-9----(9)\--|
E|-----7-----5-----3-----3-2---------------------|
       *     *     *     *


Riff 13
e|-----------------------------|
B|-----------------------------|
G|-----------------------------|
D|-----------------------------|
A|--------3p2p0----2h3p2h3p2p0-|
E|-2--2-5-------2--------------|



Riff 13a                      x6
e|-----------------------------|
B|-----------------------------|
G|-----------------------------|
D|-----------------------------|
A|--------3p2p0----2h3p2h3p2p0-|
E|-2--2-5-------2--------------|
   "Their bodies convulse..."
e|--------------------|
B|--------------------|
G|---------/11--------|
D|-4-------/11--------|
A|-4-------/-9--------|
E|-2------------------|
   "...take out the organs..."


Riff 14
e|------------------------------|
B|------------------------------|
G|------------------------------|
D|----------------------5-------|
A|------------------8-7-3-8-7-5-|
E|-3333333333333333-6-5---6-5-3-|
   ****************
   "I lurk in the alley..."
e|-----------------------------|
B|-----------------------------|
G|-----------------------------|
D|-----------------------------|
A|--------3p2p0----2h3p2h3p2p0-|
E|-2--2-5-------2--------------|
  "...kill..."
e|-----------------------------|
B|-----------------------------|
G|-----------------------------|
D|-----------------------------|
A|--------3p2p0----2h3p2h3p2p0-|
E|-2--2-5-------2--------------|


Riff 15
e|---------------------------------------|
B|---------------------------------------|
G|---------------------------------------|
D|--------------------------------4/5----|
A|--------------7/8--000000000000-2/3--4-|
E|-333333333333-5/6--------------------2-|
   ************      ************
  "A merciless butcher..."


Riff 16
e|-------------------------------------|
B|-------------------------------------|
G|-------------------------------------|
D|-------------------------------5-4-2-|
A|-------------------------------3-2-0-|
E|-0-2222222-0-2222222-0-2222222-------|
   * ******* * ******* * *******
                                "Cut you down..."
e|-------------------------------------|
B|-------------------------------------|
G|-------------------------------------|
D|-------------------------------7-6-4-|
A|-------------------------------5-4-2-|
E|-2-4444444-2-4444444-2-4444444-------|
   * ******* * ******* * *******
                                    "I..."

Riff 16a
Guitar 1
e|-----------------------------------------|
B|-----------------------------------------|
G|-----------------------------------------|
D|-----------------------------------------|
A|-0-2222222-0-2222222-2-4444444-2-4444444-|
E|-----------------------------------------|
   * ******* * ******* * ******* * *******
   "...see you..."
e|-----------------------------------------|
B|-----------------------------------------|
G|-----------------------------------------|
D|-----------------------------------------|
A|-3-5555555-4-6666666-5-7777777-6-8888888-|
E|-----------------------------------------|
   * ******* * ******* * ******* * *******
   "...and I'm waiting..."              "For black friday!"

Guitar 2
e|-----------------------------------------|
B|-----------------------------------------|
G|-----------------------------------------|
D|-----------------------------------------|
A|-----------------------------------------|
E|-----------------------------------------|

e|-----------------------------------------|
B|-----------------------------------------|
G|-----------------------------------------|
D|-----------------------------------------|
A|-----------------------------------------|
E|-----------------------------------------|



Riff 17 (Solo Rhythm)
e|--------------------------------|
B|--------------------------------|
G|--------------------------------| ----|
D|--------------------------2-2---|     |
A|--------------------------0-0-2-|     |
E|-222222222222222222222222-----0-|     |
   ************************             |--> Play 3x
e|--------------------------------|     |
B|--------------------------------|     |
G|--------------------------------|     |
D|--------------------------5-4-2-| ----|
A|--------------------------3-2-0-|
E|-222222222222222222222222-------|
   ************************

e|--------------------------------|
B|--------------------------------|
G|--------------------------------|
D|--------------------------2-2---|
A|--------------------------0-0-2-|
E|-222222222222222222222222-----0-|
   ************************
e|-----------------------------------------|
B|-----------------------------------------|
G|-----------------------------------------|
D|--------------------------5-4-2-5--5-4-2-|
A|--------------------------3-2-0-3--3-2-0-|
E|-222222222222222222222222----------------|
   ************************


Solo (Poland)
e|-----------------------------------------------|
B|-----------------------------------------------|
G|-----------------------------------------------|
D|-----------------------------------------------|
A|-----------------------------------------------|
E|-----------------------------------------------|

e|-----------------------------------------------|
B|-----------------------------------------------|
G|-----------------------------------------------|
D|-----------------------------------------------|
A|-----------------------------------------------|
E|-----------------------------------------------|

e|-----------------------------------------------|
B|-----------------------------------------------|
G|-----------------------------------------------|
D|-----------------------------------------------|
A|-----------------------------------------------|
E|-----------------------------------------------|

e|-----------------------------------------------|
B|-----------------------------------------------|
G|-----------------------------------------------|
D|-----------------------------------------------|
A|-----------------------------------------------|
E|-----------------------------------------------|

End Solo


Play Riff 13a  "...intruder..."
Play Riff 14   "Bloodthirsty demon..."
Play Riff 15   "A merciless butcher..."
Play Riff 17   "It's black friday!"


Ending
e|--------------------------------|
B|--------------------------------|
G|--------------------------------|
D|--------------------------2-2---|
A|--------------------------0-0-2-|
E|-222222222222222222222222-----0-|
   ************************
                      "It's black friday..."
e|--------------------------------|
B|--------------------------------|
G|--------------------------------|
D|--------------------------5-4-2-|
A|--------------------------3-2-0-|
E|-222222222222222222222222-------|
   ************************
                      "Write the devil..."
e|-----------------|
B|-----------------|
G|-----------------|
D|-5-4-2--5-4-2----|
A|-3-2-0--3-2-0-4\-|
E|--------------2\-|
  "...devil on the, devil on the wall."



Notation:

10^        = bend a quarter step.
10b11      = bend a half step.
10b12      = bend a full step.
10b12r10   = bend and release.
[10]12     = pre-bend.
[10]12r10  = pre-bend and release.
{14}       = pick the 14th fret while holding the most
             previous bend.
<17>       = touch the string above the 17th fret while
             previous note(s) is(are) still ringing.

10b13*     = tremolo bar bend, from the 10th fret to the 13th fret.
7d4*       = tremolo bar dive, from the 7th fret to the 4th fret.
12~*       = tremolo bar vibrato.

x   =  mute with fret-hand
*   =  palm mute
X\\ =  pick slide
h   =  hammer-on
p   =  pull-off
~   =  vibrato
t   =  finger tap
/   =  slide up
\   =  slide down
h.  =  natural harmonics
a   =  artificial harmonics
(9) =  ghost note
tm  =  trem picking
tr  =  trill

3. Eruption by Van Halen

Eruption

A list like this is not complete without Eruption by Van Halen. At least one person is going to have heard this song before and anyone who hasn’t already is going to be amazed. The song sounds extremely impressive and it is actually difficult to play perfectly.

It has a little bit of almost every impressive guitar technique. There are slides, there’s tapping, and there’s tremolo picking just to name a few. Also, it’s a very short song so your audience won’t have time to lose interest in your playing.

Tab:

Tuning: Half-step down

(Effects To Use:)
Reverb
Phaser
Slight Delay
Compressor

             |-------PM--------|
D#|----------------------------------------------------------------------------------------|
A#|-------------------------------5-8p5p0-8p5p0-8p5p0-8p5p0-8p5p0-8p5p0-8p5p0--------------|
F#|-----2----------5-7b(ps)r-p5-7----------------------------------------------------------|
C#|--/x-2------5-7-------------------------------------------------------------------------|
G#|--/x-0--3/7-----------------------------------------------------------------------------|
D#|----------------------------------------------------------------------------------------|

D#|---------------------------------------------------------------------------|
A#|----5-8p5---5--------------------------------------------------------------|
F#|--7-------7---7-5--4h5h7p5p4---4h5h7p5p4---4h5h7p5p4---4h5h7p5p4-----------|
C#|-----------------------------7-----------7-----------7-----------7---------|
G#|---------------------------------------------------------------------------|
D#|---------------------------------------------------------------------------|

D#|------------------------------------------------------0--0-----------------|
A#|---------------------------------------------------2--3--3-----------------|
F#|--4------------------------------------------------2--0--2-----------------|
C#|----7-6-5-4----------------------------------------2--0--0-----------------|
G#|------------7-6-5-3~--/-\------0w-0w-0w-0w-0w-0w---0--0--------------------|
D#|----------------------------0w------------------------3--------------------|

D#|-------17-----17-17----17-17-----17-17---------17-20-21----20p17-----------|
A#|--/20-----20b------20b-------20b-------20b--20----------19-----------------|
F#|---------------------------------------------------------------------------|
C#|---------------------------------------------------------------------------|
G#|---------------------------------------------------------------------------|
D#|---------------------------------------------------------------------------|

D#|------17-----17--20brp17----------------------------------------------------------------------------|
A#|--19b----20b-------------20-17-20brp17----20brp17----20brp17----20brp17----20brp17----20brp17----17-|
F#|---------------------------------------19---------19---------19---------19---------19---------19----|
C#|----------------------------------------------------------------------------------------------------|
G#|----------------------------------------------------------------------------------------------------|
D#|----------------------------------------------------------------------------------------------------|

D#|--------------------17-20-------------17-20--17h20p17/14h15p14--------------------------------------|
A#|--------16-18-20-21----------17h20-----------------------------17p14----14--------------------------|
F#|--12/18-------------------17-------17--------------------------------17----18b-14-18b-18b-----------|
C#|----------------------------------------------------------------------------------------------------|
G#|----------------------------------------------------------------------------------------------------|
D#|-------------------------------------------------------------------------------------------0DB------|

(This is the part where he starts tremolo picking) (very fast)
D#|--12-12-12-12-12-12-12-16-16-16-16-16-16-19-19-19-19-19-19-17-17-17-17-14-14-14-14--|
A#|------------------------------------------------------------------------------------|
F#|------------------------------------------------------------------------------------|
C#|------------------------------------------------------------------------------------|
G#|------------------------------------------------------------------------------------|
D#|------------------------------------------------------------------------------------|

D#|--17-17-17-17-14-14-14-14-16-16-16-16-12-12-12-12-12-12-16-16-16-16-16-16-19-19-19--|
A#|------------------------------------------------------------------------------------|
F#|------------------------------------------------------------------------------------|
C#|------------------------------------------------------------------------------------|
G#|------------------------------------------------------------------------------------|
D#|------------------------------------------------------------------------------------|

D#|--19-19-19-17-17-17-17-14-14-14-14-17-17-17-17-14-14-14-14-16-16-16-16-12-12-12-12--|
A#|------------------------------------------------------------------------------------|
F#|------------------------------------------------------------------------------------|
C#|------------------------------------------------------------------------------------|
G#|------------------------------------------------------------------------------------|
D#|------------------------------------------------------------------------------------|

D#|--12-12-14-14-10-10-12-12-9-9-10-10/7-7-9-9/5-5-7-7/3-3-5-5/1-1-3-3-1-1-1-1-1-1-----|
A#|------------------------------------------------------------------------------------|
F#|------------------------------------------------------------------------------------|
C#|------------------------------------------------------------------------------------|
G#|------------------------------------------------------------------------------------|
D#|------------------------------------------------------------------------------------|

D#|--1h3p1p0---------------------------------------------------------------------------|
A#|-----------5p3p0--------------------------------------------------------------------|
F#|------------------5p2p0-------------------------------------------------------------|
C#|------------------------------------------------------------------------------------|
G#|------------------------------------------------------------------------------------|
D#|-------------------------0wwwwww----------------------------------------------------|

D#|--------------------------------------------------------------------------------------------------|
A#|--------------------------------------------6---5-------------------------------------------------|
F#|--------------------5p0-------------5p0-----------7p0-5--9h11p9h11p9h11p9h11p9h11p9h11p9~~--------|
C#|------5h7-7-7-7-7-7-----7-7-7-7-7-7-----7/8---8---------------------------------------------------|
G#|--/7----------------------------------------------------------------------------------------------|
D#|--------------------------------------------------------------------------------------------------|

D#|--------------------------------------------------------------------------------------------------|
A#|--------------------------------------------------------------------------------------------------|
F#|-------------------------------------------5p4----------------------------------------------------|
C#|--------------------5p0--------------5p0-------7p6---9h11p9h11p9h11p9h11p9h11p9h11p9~~------------|
G#|------5h7-7-7-7-7-7-----7-7-7-7-7-7------7--------------------------------------------------------|
D#|--3/7---------------------------------------------------------------------------------------------|

D#|--------------------------------------------------------------------------------------------------|
A#|----------------------------------------6p5-------8p0-7-------------------------------------------|
F#|--------------------5p0-------------5p0-----7p0-5-------9h11p9h11p9/7h9p7h9p7/5h7p5h7p5/4h6p4h6p4-|
C#|------5h7-7-7-7-7-7-----7-7-7-7-7-7---------------------------------------------------------------|
G#|--3/7---------------------------------------------------------------------------------------------|
D#|--------------------------------------------------------------------------------------------------|

(here is the tapping part)
     +     +     +     +     +     +     +     +     +      +      +      +
D#|--------------------------------------------------------------------------------------|
A#|--9p2h5-9p2h5-9p2h5-9p2h5-9p2h5-9p2h5-9p2h5-9p2h5-10p2h5-10p2h5-10p2h5-10p2h5---------|
F#|--------------------------------------------------------------------------------------|
C#|--------------------------------------------------------------------------------------|
G#|--------------------------------------------------------------------------------------|
D#|--------------------------------------------------------------------------------------|

     +      +      +      +      +      +      +      +      +      +      +
D#|--------------------------------------------------------------------------------------|
A#|--10p2h5-10p2h5-10p2h5-10p2h5-10p4h7-10p4h7-10p4h7-10p4h7-10p4h7-10p4h7-10p4h7-10p4h7-|
F#|--------------------------------------------------------------------------------------|
C#|--------------------------------------------------------------------------------------|
G#|--------------------------------------------------------------------------------------|
D#|--------------------------------------------------------------------------------------|

     +      +      +      +      +      +      +      +      +      +      +
D#|--------------------------------------------------------------------------------------|
A#|--12p4h7-12p4h7-12p5h9-12p5h9-12p5h9-12p5h9-12p5h9-12p5h9-12p5h9-12p5h9-12p5h9--------|
F#|--------------------------------------------------------------------------------------|
C#|--------------------------------------------------------------------------------------|
G#|--------------------------------------------------------------------------------------|
D#|--------------------------------------------------------------------------------------|

     +      +      +      +      +      +      +      +      +      +      +
D#|--------------------------------------------------------------------------------------|
A#|--13p5h8-13p5h8-13p5h8-13p5h8-13p5h8-13p5h8-13p5h8-13p5h8-15p5h8-15p5h8-15p7h10-------|
F#|--------------------------------------------------------------------------------------|
C#|--------------------------------------------------------------------------------------|
G#|--------------------------------------------------------------------------------------|
D#|--------------------------------------------------------------------------------------|

     +       +       +       +       +       +       +       +       +
D#|--------------------------------------------------------------------------------------|
A#|--15p7h10-15p7h10-15p7h10-15p7h10-15p7h10-15p7h10-15p7h10-17p7h10-17p7h10-------------|
F#|--------------------------------------------------------------------------------------|
C#|--------------------------------------------------------------------------------------|
G#|--------------------------------------------------------------------------------------|
D#|--------------------------------------------------------------------------------------|

     +       +       +       +       +       +       +       +       +        +
D#|--------------------------------------------------------------------------------------|
A#|--17p9h12-17p9h12-17p9h12-17p9h12-17p9h12-17p9h12-17p9h12-17p9h12-17p12h15-17p12h15---|
F#|--------------------------------------------------------------------------------------|
C#|--------------------------------------------------------------------------------------|
G#|--------------------------------------------------------------------------------------|
D#|--------------------------------------------------------------------------------------|

     +        +        +       +       +        +        +        +        +
D#|----------------------------------------------------------------------------------------|
A#|--17p11h14-17p10h13-17p9h12-17p9h12-17p12h15-17p12h15-17p11h14-17p10h13-17p9h12-17p9h12-|
F#|----------------------------------------------------------------------------------------|
C#|----------------------------------------------------------------------------------------|
G#|----------------------------------------------------------------------------------------|
D#|----------------------------------------------------------------------------------------|

     +        +        +       +       +       +       +       +      +       +
D#|--------------------------------------------------------------------------------------|
A#|--15p10h13-15p10h13-15p9h12-15p9h12-15p8h11-15p8h11-15p7h10-15p710-13p8h11-13p8h11----|
F#|--------------------------------------------------------------------------------------|
C#|--------------------------------------------------------------------------------------|
G#|--------------------------------------------------------------------------------------|
D#|--------------------------------------------------------------------------------------|

     +       +       +      +      +      +      +      +      +      +      +
D#|--------------------------------------------------------------------------------------|
A#|--13p7h10-13p7h10-13p6h9-13p6h9-13p5h8-13p5h8-12p4h7-12p4h7-12p4h7-12p4h7-12p4h7------|
F#|--------------------------------------------------------------------------------------|
C#|--------------------------------------------------------------------------------------|
G#|--------------------------------------------------------------------------------------|
D#|--------------------------------------------------------------------------------------|

     +      +      +      +      +      +      +      +      +      +      +
D#|--------------------------------------------------------------------------------------|
A#|--12p4h7-12p4h7-12p4h7-12p5h8-12p5h8-12p5h8-12p5h8-12p5h8-12p5h8-12p5h8-12p5h8--------|
F#|--------------------------------------------------------------------------------------|
C#|--------------------------------------------------------------------------------------|
G#|--------------------------------------------------------------------------------------|
D#|--------------------------------------------------------------------------------------|

     +      +      +      +      +      +      +      +      +      +      +
D#|--------------------------------------------------------------------------------------|
A#|--12p4h7-12p4h7-12p4h7-12p4h7-12p4h7-12p4h7-12p4h7-12p4h7-12p5h8-12p4h7-12p5h8-12p4h7-|
F#|--------------------------------------------------------------------------------------|
C#|--------------------------------------------------------------------------------------|
G#|--------------------------------------------------------------------------------------|
D#|--------------------------------------------------------------------------------------|

      +      +      +      +      +      +      +      +      +
D#|-----------------------------------------------------------------------|
A#|---12p5h8-12p4h7-12p5h8-12p4h7-12p5h8-12p4h7-12p5h8-12p4h7-12p5--------|
F#|-----------------------------------------------------------------------|
C#|-----------------------------------------------------------------------|
G#|-----------------------------------------------------------------------|
D#|---------------------------------------------------------------/-\--0--|


************************************

| p  Pull-off
| /  Slide up
| h  Hammer-on
| \  Slide down
| ~  Vibrato
| b  Bend

************************************

2. Classical Gas by Mason Williams

Classical Gas

If you are sitting by a campfire and you are “that guy” that brought his acoustic guitar, this is the song to play. People who don’t already know how to play guitar like to watch the picking hand rather than the fret hand (which is how you can tell who plays guitar and who doesn’t in your audience).

The song is normally played with finger picking which looks cool to people and if the people play guitar your left hand will look impressive too. Also, the song is known by guitarists as being a necessity for a good guitar player to be able to play. The song is beautiful sounding and is extremely fun to play.

Tab:

INTRO:

         Am             G               Em          Am
 3/4
||----------------|-------------|-------------|-------------|
||-T--1-------1---|---0---------|---0---------|-------------|
||-A------2-------|--0----------|--0--2---0---|---2---------|
||-B--------------|-------------|-------------|--2----------|
||----0-----------|-------------|-------------|-0-----------|
||----------------|-3---------2-|-0-----------|-------------|


        Am           G              Em              Am

|--------------|-------------|----------------|-------------|
|---0h1----0h1-|---0---------|---0----------0-|-------------|
|--2-----------|--0----------|--0---2--0-0h2--|---2---------|
|--------------|-------------|----------------|--2----------|
|-0-----0------|-------------|----------------|-0-----------|
|--------------|-3---------2-|-0--------------|-------------|


    G     Am    G/B     C9        Am

|-------------------|--0----------------|-----------------||
|-----------------3-|--------3-1---3----|---1-0-----------||
|-----0-----2-------|------0---2--------|-----------------||
|---0-----2-----0---|-------------------|-2---------------||
|-------0-----2-----|--3----------------|-----------------||
|-3-----------------|-------------------|-----------------||




                                                                {{{{ REPEAT SECTION A }}}}
------------------------------------------------------------------------------------------
                                                                                        ||
                                {{{ PART 1: }}}                                         ||
           Am                                   Em                 Am                   ||
                                                                                        ||
||--------------------|-----------------|-----------------|------------------|          ||
||--0h1p0-------1---0-|-----------------|-0---------0-----|------------------|          ||
||--------2---2---2---|-----0-----0---0-|---2-0-2-------2-|-----2-----2------|          ||
||--------------------|---0-----0-------|-----------------|---2-----2-----2--|          ||
||--0-------0---------|-----------------|-----------------|-0-----0-----0----|          ||
||--------------------|-3-----2-----0---|-0-------0---0---|------------------|          ||
                                                                                        ||
                                                                                        ||
                                {{{ PART 2: }}}                                         ||
           Am                                   Em                 Am                   ||
                                                                                        ||
|--------------------|-----------------|-----------------|------------------||          ||
|--0h1p0-1-------1---|-----------------|-0---------0-----|------------------||          ||
|----------2---------|-----0-----0---0-|---2-0-2-------2-|-----2-----2------||          ||
|------------------2-|---0-----0-------|-----------------|---2-----2-----2--||          ||
|--0----------0------|-----------------|-----------------|-0-----0-----0----||          ||
|--------------------|-3-----2-----0---|-0-------0---0---|------------------||          ||
                                                                                        ||
 {{{ Play Part 1, 2, 1, 2 }}}                                                           ||
                                                                                        ||
------------------------------------------------------------------------------------------




   Asus       G      Am      G/B         C    Am               F       Em
                                     6/4                     4/4
||-----------------|-----------------|--0--------------------|-----------------|
||-------0-----0-1-|-----1-----3-----|--------1--3-----1--0--|-----------------|
||-----2-----0-----|---2-----0---0---|-----0--2--2-----------|-2-----0-2-2---0-|
||---2-------------|-----------------|---------------2----0--|-----------------|
||-0---------------|-0-----2-------2-|--3--------------------|-----------------|
||---------3-------|-----------------|-----------------------|-1-------0-------|


   Asus       G     Am      G/B
                                    3/4 
|-----------------|-----------------|--0-----1-----|-2-----3-----|---------------||
|-------0-----0-1-|-----1-----3-----|----1-----0---|---0-----0---|-9---10---12---||
|-h2--2-----0-----|---2-----0---0---|------0-----0-|-----0-----0-|---9----9------||
|---2-------------|-----------------|--------------|-0-----------|---------------||
|-0---------------|-0-----2-------2-|--3-----------|-------------|---------------||
|---------3-------|-----------------|--------1-----|-------3-----|-0-------------||





                                                                {{{{ REPEAT SECTION B }}}}
------------------------------------------------------------------------------------------
                                                                                        ||
        Am                D1                 Am                  D2                     ||
                                                                                        ||
||-8-7-5------5----|-----5-----5-----|-8-7-5------5----|------------------------|       ||
||--------8---5----|-7---7-7---7-5---|--------8---5----|--7---8---10--8-------5-|       ||
||--------5--------|-7-----7-----7---|--------5--------|--7---7---7---7----5----|       ||
||-----------------|---0-----0-------|-----------------|----0---0--------0------|       ||
||-0--------0---0--|---------------0-|-0--------0----0-|------------------------|       ||
||-----------------|-----------------|-----------------|------------------------|       ||
                                                                                        ||
         Am              D3                                                             ||
                                                                                        ||
|-8-7-5------5----|-------8-5----|--------------------------|------0---0---0---0-||     ||
|--------8---5----|-7-----5-5-8--|-----8-----5-----6-----3--|------3---3---3---3-||     ||
|--------5--------|-7---------7--|-----7-----5-----5-----3--|--------------------||     ||
|-----------------|---0-0--------|--------------------------|--0-----------------||     ||
|-0--------0----0-|--------------|-------------0-0----------|----0---0---0---0---||     ||
|-----------------|--------------|-5p0---0h3---------0h1----|--------------------||     ||
                                                                                        ||
------------------------------------------------------------------------------------------


                                        Am                                 Am

||---------0-----------|---------------------------------|-----------------------------------|
||-------3---3-------3-|-1---1---------3-----1-----0-----|-0h1p0-1---------0-----------------|
||-----2-------2---2---|---2---2-----2-----2-----2-----2-|---------2-----2-------2-----0-----|
||---3-----------3-----|-----------2---------------------|-------------2-------2-----2-----2-|
||-0-------------------|-0-------0-------0-----0-----0---|-0---------0-------0-----0-----0---|
||---------------------|---------------------------------|-----------------------------------|


              Am

|-----------------------------------|-------------------------|---------||
|-0h1p0-1---------0-----1-----3-----|-5---5-3---3-1---1-0---0-|---0-1-0-||
|---------2-----2-----2-----2-----2-|---5-----4-----2-----0---|-2-------||
|-------------2---------------------|-------------------------|---------||
|-0---------0-------0-----0-----0---|-0-----0-----0-----0-----|---------||
|-----------------------------------|-------------------------|---------||


          C                 G/B                 Am                G

||-0---0-----------|-----------1p0-----|-0---0-----------|---------1p0-----|
||---3---1-----1-0-|-----3---------3---|---3---1-----1-0-|-----3-------3---|
||-----------0-----|---0---0---------0-|-----------2-----|---0---0-------0-|
||-----------------|-------------------|-----------------|-----------------|
||-3-------3-------|-2---2---2---------|-0-------0-------|-----------------|
||-----------------|-------------------|-----------------|-3---3---3-------|



         C                 G/B                 Am                                  Em

|-0---0-----------|-----------1p0-----|-0---0-----------|-----------------|-----------------||
|---3---1-----1-0-|-----3---------3---|---3---1-----1-0-|-----------------|-0---------0-----||
|-----------0-----|---0---0---------0-|-----------2-----|-----0-----0---0-|---2-0-2-------2-||
|-----------------|-------------------|-----------------|---0-----0-------|-----------------||
|-3-------3-------|-2---2---2---------|-0-------0-------|-----------------|-----------------||
|-----------------|-------------------|-----------------|-3-----2-----0---|-0-------0---0---||



                        {{{{ REPEAT SECTION C }}}}
--------------------------------------------------
                                                ||
                                                ||
||-----------------0---|-1---2---3---||         ||      ||---0---0----||
||-----0---1---3-----0-|---0---0---0-||         ||      ||-9---10--12-||
||-2-----0---0---0-----|-------------||         ||      ||------------||
||---2-----------------|-----0-------||         ||      ||------------||
||-0-------0---2---3---|-------------||         ||      ||------------||
||-----3---------------|-1-------3---||         ||      ||-0----------||
                                                ||
                                                ||
--------------------------------------------------


                                thumb   finger
                                sweep   sweep
||----------------------------||--------0----||----------------------------||
||-----------PLAY-------------||---------3---||-----------PLAY-------------||
||----------------------------||---2------2--||----------------------------||
||-{{{{ REPEAT SECTION B }}}}-||--3--------3-||-{{{{ REPEAT SECTION A }}}}-||
||----------------------------||-0-----------||----------------------------||
||----------------------------||-------------||----------------------------||



||----------------------------||---0---0--------||--------------------------------|
||-----------PLAY-------------||-9---10--12--10-||-----7----8----5-----6----3-----|
||----------------------------||----------------||-----7----7----5-----5----3-----|
||-{{{{ REPEAT SECTION C }}}}-||----------------||----------------------------0---|
||----------------------------||----------------||-0-0-------------0-0----------0-|
||----------------------------||-0--------------||-------5p0--0h3--------0h1------|



|-------0-------------|---------0-------------|-----------||
|-----3---3-------3---|-------3---3-------3---|-----2p0-2-||
|---2-------2---2---0-|-----2-------2---2---2-|----2------||
|-3-----------3-------|---4-----------4-------|---2-------||
|---------------------|-0---------------------|-0---------||
|---------------------|-----------------------|-----------||

1. Your Own Song!

That’s right, your own song. The best way to impress anyone anywhere, is to play a song that you wrote yourself. After you play a song, people always ask “Did you write that?” and when you say no they say “Oh.” But, if you say yes they say “Really?? That’s awesome!” If you don’t believe me, try for yourself.

Tell us some songs you like to show off with in the comments down below.

Leave a Reply

Your email address will not be published. Required fields are marked *

This site uses Akismet to reduce spam. Learn how your comment data is processed.